Song name
# A B C D E F G H I J K L M N O P Q R S T U V W X Y Z

The Nightwatchman - Whatever It Takes tab

Help us improve GuitareTab! Take a short survey!
-------------------------------------------------------------------------------
			    Whatever it Takes - Tom Morello: The Nightwatchman
-------------------------------------------------------------------------------

Tuning: Standard

e|--------------------------|-------------------------------------------------|
B|--------------------------|-------------------------------------------------|
G|--------------------------|-------------------------------------------------|
D|-9-6--9-6--9-6--9-6---6-6-|-4----4----4----4--------------------------------|
A|--------------------9-----|---6----6----6----6-4-6-6------------------------|
E|--------------------------|-------------------------------------------------|

e|--------------------------|-------------------------------------------------|
B|--------------------------|-------------------------------------------------|
G|--------------------------|-------------------------------------------------|
D|--------------------------|--------------------------4----------------------|
A|-4-2--4-2--4-2--4-2---2-2-|----------------------4h6------------------------|
E|--------------------4-----|-7-4--7-4--7-4--7-4-7----------------------------|

e|-------------------|     |-------------------|
B|-------------------|     |-------------------|
G|----4--------------|     |---4---------------|
D|-6----6-4-6---6----|     |-6---6-4-6---6-----|
A|-------------------|     |-------------------|
E|-4-----------4--4--| x3  |-4---------4--4----|

e|---------|---------|---------|---------|
B|---------|---------|---------|---------|
G|---------|---------|---------|---------|
D|-4-4-4-4-|-4-4-4-4-|-4-4-4-4-|-4-4-4-4-|
A|---------|---------|---------|---------|
E|-2-2-2-2-|-2-2-2-2-|-2-2-2-2-|-2-2-2-2-|

Strum to the beat (8 8th notes)
   G#    F#    D#m      C#     C#sus4  C#
e|------|------|-6----|-----------------|
B|-4----|-2----|-7----|-6-6-6-6-7-7-6-6-|
G|-4----|-3----|-8----|-6-6-6-6-6-6-6-6-|
D|-6----|-4----|-8----|-6-6-6-6-6-6-6-6-|
A|-6----|-4----|-6----|-4-4-4-4-4-4-4-4-|
E|-4----|-2----|------|-----------------|

| /  slide up
| \  slide down
| h  hammer-on
| p  pull-off
| ~  vibrato
| +  harmonic
| x  Mute note
===============================================================================
Related for Whatever It Takes tab