Song name
# A B C D E F G H I J K L M N O P Q R S T U V W X Y Z

The Offspring - The Kids Aren?t All Right tab

E|----------------|--------------|-----------------|
B|----------------|--------------|-----------------|
G|----6---6-----5-|---5555-6-----|-----6---6-----5-|
D|-88-8-8-8-8-8-8-|-8-8888-8-8-8-|-4-4-4-4-4-4-4-4-|
A|----------------|--------------|-----------------|
E|----------------|--------------|-----------------|

E|--------------|---------------|-------------|
B|--------------|---------------|-------------|
G|---5555-6-----|----8---8----5-|---5555-6----|
D|-4-4444-4-4-4-|-66-6-6-6-66-6-|-6-6666-6-66-|
A|--------------|---------------|-------------|
E|--------------|---------------|-------------|

E|-------------|-----------|
B|-------------|-----------|
G|-6-888-666-5-|-5555-6----|
D|-6-666-666-6-|-6666-6-66-|
A|-------------|-----------|
E|-------------|-----------|

PRE VERSE:  2X
E|-------|-------|-------|-------|-----------------------------------------|
B|-------|-------|-------|-------|-----------------------------------------|
G|-------|-------|-------|-------|-----------------------------------------|
D|-------|-------|-------|-------|-----------------------------------------|
A|-1---1-|-2---4-|-------|-3---4-|-----------3333-4444------4444-3333-4444-|
E|-------|-------|-2---2-|-------|-4444-6666-----------6666----------------|

VERSE:  2X
E|----------|----------|----------|----------|
B|----------|----------|----------|----------|
G|----------|----------|----------|----------|
D|----------|----------|----------|----------|
A|-8--------|--------8-|-4--------|--------4-|
E|-6-666666-|-666666-6-|-2-222222-|-222222-2-|

E|----------|----------|----------|----------|
B|----------|----------|----------|----------|
G|----------|----------|----------|----------|
D|-6--------|--------6-|----------|----------|
A|-4-444444-|-444444-4-|-6--------|--------6-|
E|----------|----------|-4-444444-|-444444-4-|










=-%




hola un saluo pal viCho!!!










robert_PK@hotmail.com












maxiro se hiso caca!





...tio.......tiene gamba que me de?....( pa la incha).-ya po tio #toy meao#..!
Tap to rate this tab
 
# A B C D E F G H I J K L M N O P Q R S T U V W X Y Z