Song name
# A B C D E F G H I J K L M N O P Q R S T U V W X Y Z

The Organ - Love Love Love tab

Love Love Love
by The Organ
tabbed by manOutOfTime

------------------|-13-13------------|
-1111111111111111-|-13-13-1011111111-|
-1010101010101010-|-------1010101010-|
------------------|------------------|
------------------|------------------|
------------------|------------------|
 Riff1              Riff2

*Intro*

Riff1  Riff2  Riff1  Riff2

*Verse 1*

Riff1  Riff2  Riff2  Riff2
see the people sitting over there
Riff1  Riff2  Riff2  Riff2
i want to kiss and touch them everywhere
Riff1  Riff2  Riff2  Riff2
oh no, not  because i really care
Riff1  Riff2  Riff2  Riff2
oh god, no , no, i wouldn't dare

*Chorus Riff* x2
--------------------|-----------------|---------------|--------------|----|
--------------------|-141414-13-------|---------------|--------------|----|
-111111-10-11-11-11-|-----------10-10-|-111111-10-8-8-|-101010-8-6-6-|----|
--------------------|-----------------|---------------|--------------|----|
--------------------|-----------------|---------------|--------------|----|
--------------------|-----------------|---------------|--------------|----|

--------------------|-----------------|---------------|--------------|----|
--------------------|-141414-13-------|---------------|--------11-9--|----|
-111111-10-11-11-11-|-----------10-10-|-111111-10-8-8-|-101010-------|----|
--------------------|-----------------|---------------|--------------|----|
--------------------|-----------------|---------------|--------------|----|
--------------------|-----------------|---------------|--------------|----|
love, love
i'd really like a small part of it
oh love
i cant believe the word love

*Verse 2*
--------------------1313---------------------------------------------|-------|
-1111-14-13-141311--1414----14----14----14----13-14------------------|-------|
-1010--------------------13---13-----13----13-------13--11-10-10\8-6-|-------|
---------------------------------------------------------------------|-------|
---------------------------------------------------------------------|-------|
-------------------------------------------------------------------x2|-------|
he's had love in damp alleys
in city hall, in city libraries
Riff1  Riff2  Riff2  Riff2
we smoked it underneath the playground slide
Riff1  Riff2  Riff2  Riff2
why did i try ?

*Chorus Riff* x2
oh love
we cry so very much about it
oh love
obsessing in the night about it
oh love
i'd really like a small part of it
oh love, love , love

*Verse 2 Riff* x2
okay , that's enough of that
okay, okay now that's enough of that
Riff1  Riff2  Riff2  Riff2
i'm getting very tired of the facts
Riff1  Riff2  Riff2  Riff2
i'm getting very tired of the fact that

*Middle 8*
-------------------------------------|
-------------------66666666-99999999-|
-55555555-66666666-------------------|
-------------------------------------|
-------------------------------------|
----------------------------------x2-|
i must be right
oh, it must be right

-9-88888888-99999999-1313131313131313-1616161616161616-|
-------------------------------------------------------|
-------------------------------------------------------|
-------------------------------------------------------|
-------------------------------------------------------|
-------------------------------------------------------|x3
that's why i,m cold and alone again
that's why i'm all on my own again
that's why i'm throwing things around my
home again that's why i'm looking for

*Chorus Riff* x4
love
oh love
we cry so very much about it
oh love
obsessing in the night about it
oh love
i'd really like a small part of it
oh love, love , love

---------------------------------------------|------------------------------|
-------------------66666666-1111111111-------|------------------------------|
-55555555-66666666---------------------------|------------------------------|
---------------------------------------------|------------------------------|
---------------------------------------------|------------------------------|
---------------------------------------------|------------------------------|
Tap to rate this tab
# A B C D E F G H I J K L M N O P Q R S T U V W X Y Z