Song name
# A B C D E F G H I J K L M N O P Q R S T U V W X Y Z

The Others - William tab

Intro

e----------------------------------------------------------|
B----------------------------------------------------------|
g------------------------------77777-66-2222-77777-66-2222-|
D-77777-66-2222--77777-66-2222-----------------------------|
A----------------------------------------------------------|
E----------------------------------------------------------|

Verse part 1-  PM These two chords 

e------|
B----7-|
G-6--7-|
D-7--7-|
A-7--5-|
E-5----|

Then PM intro for verse as well

Chorus

e----------------------------------------------------------|
B----------------------------------------------------------|
g------------------------------77777-66-9999-77777-66-9999-|
D-77777-66-2222--77777-66-2222-----------------------------|
A----------------------------------------------------------|
E----------------------------------------------------------|

Post Chorus


e----------------------------------------------------------|
B----------------------------------------------------------|
g------------------------------6-7-9-6-7-9-6-7-9-6-7-9-----|
D-77777-66-9-11--77777-66-9-11-----------------------------|
A----------------------------------------------------------|
E----------------------------------------------------------|

e------------------------------|
B------------------------------|
g-6-7-9-6-7-9-6-7-9-6-7-9------|
D------------------------------|
A------------------------------|
E------------------------------|

Middle 8 bit- Same as verse except use different strumming

Outro-

e------------------------------9-10-12-9-10-12-9-10-12-9-10-12-|
B-10101010-9-----10101010-9------------------------------------|
g------------9--------------9----------------------------------|
D--------------------------------------------------------------|
A--------------------------------------------------------------|
E--------------------------------------------------------------|


e-9-10-12-9-10-12-9-10-12-9-10-12---10---9--------------------|
B-------------------------------------------------------------|
g-------------------------------------------------------------|
D-------------------------------------------------------------|
A-------------------------------------------------------------|
E-------------------------------------------------------------|
Tap to rate this tab
# A B C D E F G H I J K L M N O P Q R S T U V W X Y Z