Guitaretab - guitar tabs
Song name
# A B C D E F G H I J K L M N O P Q R S T U V W X Y Z

The Outline - Shotgun tab

Shotgun by the Outline
The intro guitar riff is played clean with tremolo and delay effects but everything else 
just heavy distortion. Listen to song for rhythm.
Standard Tuning
Rhythm Guitar: Intro
E---------------------------|-------------------------------------|
B---------------------------|-------------------------------------|
G----------------7----7-----|-------Repeat------------------------|
D-11----9------9----8x2----|-4444444444444444-77777777-99999999--|
A-11----11----9----9--------|-4444444444444444-77777777-99999999--|
E---------------------------|-2222222222222222-55555555-77777777--|

Lead Guitar: Intro (comes in when the first part of the intro repeats it self and 
until the verse begins
E----------------------------|
B----------------------------|
G----------------------------|
D----7--7--7--7--7--7--7--7--|
A--6--6--6--6--9--9--8--8----|
E----------------------------|
[ Tab from: http://www.guitaretab.com/t/the-outline/156415.html ]
Rhythm Guitar:Verse
E----------------------------------------------------|
B----------------------------------------------------|
G----------------------------------------------------|
D-4444-------4444-------7777-------9999--------------|Repeat until Chorus
A-4444-------4444-------7777-------9999--------------|
E-2222-------2222-------5555-------7777--------------|

Chorus:
E--------------------------------------------------------------|
B--------------------------------------------------------------|
G--------------------------------------------------------------|Repeat until verse.
D----7777-6666-4444-4444---7777-6666-44444444------------------|
A----7777-7777-4444-2222---7777-7777-44444444------------------|
E----5555-4444-2222--------5555-4444-22222222------------------|

Verse 2: Same as Verse 1

Outro: These chords just repeat forever with just some effects and differing rhythms.
E------------------|
B------------------|
G------------------|
D--4----7----9-----|
A--4----7----9-----|
E--2----5----7-----|
Related for Shotgun tab