Song name
# A B C D E F G H I J K L M N O P Q R S T U V W X Y Z

The Panic Channel - Bloody Mary tab

-----------------------------------------------------------------------------
			     Bloody Mary -- The Panic Channel
-----------------------------------------------------------------------------
Tabbed by: zokblik
"Always listen for the rhythm"


Opening/Verse Riff (Acoustic)
-Occurs in 2 sections: At the start and after the first Chorus
-Repeat until the Pre-Chorus begins

   Am figure     E7add flat6 figure
e|-----0--0-0-0-----0--0-0-0-|
B|-----1--1-1-1-----1--1-1-1-|
G|-----2------------1--------|
D|-2-------------0-----------|
A|-0-------------2-----------|
E|---------------0-----------|


Pre-Chorus

e|-5-----5-----5-----5-----7---8---5-----5-----5-----5-----7-------|
B|---5-----5-----5-----5-----5---5---5-----5-----5-----5-----5-8p5-|
G|-----5-----5-----5-----5-------------5-----5-----5-----5---------|
D|-----------------------------------------------------------------|
A|-----------------------------------------------------------------|
E|-----------------------------------------------------------------|


Chorus Chords
**Play this on the pickup before each Chorus repeats (on the word "Bloody")

   F      G#     Am     C      F      G      D   **E5
e|-1------4------5------8------1------3------2--|------|
B|-1------4------5------8------1------3------3--|------|
G|-2------5------5------9------2------5------2--|------|
D|-3------6------7------10-----3------5------0--|-2--2-|
A|-3------6------7------10-----3------5---------|-2--2-|
E|-1------4------5------8------1------3---------|-0--0-|


Interlude
-Synthetically ambient with various electronic sounds. You can strum an A5 chord with 
open strings on beat 1 of each measure

e|---|
B|-0-|
G|-2-|
D|-2-|
A|-0-|
E|---|


Chords played under the Solo
                                                                     G#
   C5         E7         F          C5         E7         F    (connotation)
e|------------0----------1---------------------0----------1---------(4)-|
B|------------0----------1---------------------0----------1---------(4)-|
G|-5----------1----------2----------5----------1----------2---------(5)-|
D|-5----------0----------3----------5----------0----------3---------(6)-|
A|-3----------2----------3----------3----------2----------3---------(6)-|
E|------------0----------1---------------------0----------1---------(4)-|
Tap to rate this tab
 
# A B C D E F G H I J K L M N O P Q R S T U V W X Y Z