Song name
# A B C D E F G H I J K L M N O P Q R S T U V W X Y Z

The Penguin Cafe Orchestra - Music For A Found Harmonium tab

-------------------------------------------------------------------------------
		Music For A Found Harmonium - Penguin Cafe Orchestra
-------------------------------------------------------------------------------
Tabbed by:slurms
Email:slurms.mckenzie@hotmail.co.uk

Tuning:EADGBE

This is the main melody transcribed for guitar for the version below

http://www.youtube.com/watch?v=yJg1NNyke2E

This is a very repetitive song so for times sake, I`l only tab each section once and if 
cat figure out which is which, you shouldn't be playing guitar.

Major Section (C)
e|------------------------------------|--|-------------------------------------|--|
B|------------------------------------|--|-------------------------------------|--|
G|------------------------------------|--|-------------------------------------|--|
D|--2-3-2----2-3-2----2-3-2----0---2--|x2|--0----0----2----2----3-2-0-3-2------|x2|
A|-3-3-3-3--3-3-3-3--3-3-3-3--3-323-3-|--|-3-323--323--323--323--3-3-3-3-3-3-3-|--|
E|------------------------------------|--|-------------------------------------|--|

Minor Section (Eb)
e|--------------------|--|-----------|--|-----------|--|
B|--------------------|--|-----------|--|-----------|--|
G|--------------------|--|-----------|--|-----------|--|
D|--8-----------8-----|x4|--6--------|x4|--9--------|x4|
A|-6-656-8-6---6-6565-|--|-6-656-8-6-|--|-6-656-8-6-|--|
E|--------------------|--|-----------|--|-----------|--|


| /  slide up
| \  slide down
| h  hammer-on
| p  pull-off
| ~  vibrato
| +  harmonic
| x  Mute note
|
|  For Band Info visit http://www.penguincafe.com/
===============================================================================
Tap to rate this tab
# A B C D E F G H I J K L M N O P Q R S T U V W X Y Z