Song name
# A B C D E F G H I J K L M N O P Q R S T U V W X Y Z

The Perishers - Trouble Sleeping tab

Highlighted       Show chord diagrams
-------------------------------------------------------------------------------
			     Corinne Bailey Rae
                              Trouble Sleeping
-------------------------------------------------------------------------------
Tabbed by: Shingi Zinyemba
Email: zinyembas@nku.edu

Tuning: Standard

Dedicated to Lillian...

Chords:

    Fm     Bb    Ebmaj7    Eb6     Fm7     Cm     G7     Ab    AbMaj7
e|---1------1-----3-------3-------x------3------3------4-------x-------------|
B|---1------3-----3-------1-------1------4------3------4-------4-------------|
G|---1------3-----3-------3-------1------5------4------5-------5-------------|
D|---3------3-----1-------1-------1------5------3------6-------5-------------|
A|---3------1-----x-------x-------x------3------5------6-------x-------------|
E|---1------x-----x-------x-------1------x------3------4-------4-------------|


Intro:

Fm    Bb    Ebmaj7    Eb6

Verse:
Fm    Bb    Ebmaj7    Eb6            Fm7  
It's late and I'm feeling so tired
      Fm    Bb    Ebmaj7    Eb6            
Having trouble sleeping.
Fm    Bb    Cm
      This constant compromise
Fm7        G7
Between thinking and breathing.

Chorus:
Fm    Bb    Ebmaj7    Eb6            
Could it be I'm suffering
Because I'm never give in?
Won't say that I'm falling in love
Tell me I don't seem myself
Fm    Bb    Ebmaj7    Eb6            Fm7
Couldn't I blame something else?
Bb    G7
Just don't say I'm falling in love

Verse 2:
(Same as 1st verse)
Some kind of therapy
Is all I need
Please believe me
Some instant remedy
That can cure me completely

Chorus:
(Same as 1st chorus)
Could it be that I'm suffering
Because I'll never give in?
Won't say that I'm falling in love
Tell me I don't seem myself
Couldn't I blame something else?

Bb           G7            Ab
Just don't say I'm falling in love
Bb
Ohh 'cause I've been there before and it's not enough
            AbM7
So nobody say it
            Bb
Don't even say it
           G7
I ve got my eyes shut
Won't look, oh
No, I'm not in love

Chorus:
(Same as 1st chorus)
Could it be I'm suffering
Because I'll never give in?
I'm falling love
Tell me I don't seem myself good enough for something else

Outro
(Sam as chorus)
Just don't say I'm falling in love
Falling in love
Just don't say I'm falling in love
Oh, yeah
Falling love ooh
Oh, oh, don't say that I'm falling in love, don't say that, oh
Just don't say that I'm falling in love, yeah
Just don't say that I'm falling in love
Don't say but in the answer
'Cause I'll never give in
Oh
Falling in love
Yeah
Oh


| /  slide up
| \  slide down
| h  hammer-on
| p  pull-off
| ~  vibrato
| +  harmonic
| x  Mute note
===============================================================================
Tap to rate this tab
# A B C D E F G H I J K L M N O P Q R S T U V W X Y Z