Song name
# A B C D E F G H I J K L M N O P Q R S T U V W X Y Z

The Plugz - Electrify Me tab

http://myspace.com/losplugz

I guessed at the lyrics since I couldn't find them anywhere on the web.  Lemme know if 
ain't correct.  The Plugz were punk but this is kinda ska.

Electrify Me
by the Plugz

G -  D -
G
I let this fire burn inside
D
'cuz the love I lost in the alley
G
She appeared and she disappeared
D
Into a cloud of grafitti
G	D
	grafitti
G	D
	She electrify me
G	D

G
Radioactive hair stuck in the sky
D
a plastic bag, a gun inside
G
green cowboy boots and her black straight legs
D
She electrify me
G	D
	She electrify me
G	D
	She electrify me
G	D


BASS CHORDS FOR SOLO
G -	D -
G -	D -
G -	G -
G -	G -


E ------------------|---------------------|------------------|---------------------|
B ------------------|---------------------|------------------|---------------------|
G ------------------|-7p5p4p5p4s2p0-------|-7----7----7------|-----2s4-5-7-5-4-2-0-|
D -5----5----5------|---------------0-5-7-|-7----7----7------|-0h2-----------------|
A -5----5----5------|---------------------|-5----5----5------|---------------------|
E -3----3----3------|---------------------|------------------|---------------------|


E------------------------|-------------------|
B------------------------|-------------------|
G----4---7-5-4---7-5-4---|----4--------------|
D-0-5-5--------7-------7-|-0-5-5-5-4-5-4-----|
A------------------------|---------------5-5-|
E------------------------|-------------------|

G -  D -
G
She danced and pogo'd all night long
D
She bobbed her head like a toy tin doll
G
She shook her shoulders 'round so free
D
She even danced on the ground with me
G	D
	on the ground with me
G	D
	She electrify me
G	D
	She electrify me
G	D


BASS CHORDS FOR SOLO
G -	D -
G -	D -
G -	G -
G -	G -


E ------------------|---------------------|------------------|---------------------|
B ------------------|---------------------|------------------|---------------------|
G ------------------|-7p5p4p5p4s2p0-------|-7----7----7------|-----2s4-5-7-5-4-2-0-|
D -5----5----5------|---------------0-5-7-|-7----7----7------|-0h2-----------------|
A -5----5----5------|---------------------|-5----5----5------|---------------------|
E -3----3----3------|---------------------|------------------|---------------------|


E------------------------|-------------------|
B------------------------|-------------------|
G----4---7-5-4---7-5-4---|----4--------------|
D-0-5-5--------7-------7-|-0-5-5-5-4-5-4-----|
A------------------------|---------------5-5-|
E------------------------|-------------------|


G -	D -
G -	D - G
Tap to rate this tab
# A B C D E F G H I J K L M N O P Q R S T U V W X Y Z