Song name
# A B C D E F G H I J K L M N O P Q R S T U V W X Y Z

The Pretty Reckless - Dear Sister tab

Hey, this song is usually played half a step down but this is a standard tuning version. 
If anything is wrong then please leave a suggestion in the comments and ill fix it up. thanks.


E  ----------------------------------------------------------|
B  ----------------------------------------------------------|
G  ----4----4--4--4--16--15--13--8-----------8---------------|
D  ---------------------------------6--9--6-----6--9--6------|
A  ----------------------------------------------------------|
E  ----------------------------------------------------------|

    Dear sister, can you help me lie?

E  ----------------------------------------------------------|
B  ----------------------------------------------------------|
G  ----9-----------9----------9----9----9----9---------------|
D  -------6--9--6----6--9--6---------------------------------|
A  ------------------------------7----7----7----7------------|
E  ----------------------------------------------------------|

    Ive told the truth so many years, no one seems to wanna hear that

E  ----------------------------------------------------------|
B  ----------------------------------------------------------|
G  -------4---4---4--16--15--13--8-----------8---------------|
D  ---------------------------------6--9--6-----6--9--6------|
A  ----------------------------------------------------------|
E  ----------------------------------------------------------|

    Im not someone else inside

E  ----------------------------------------------------------|
B  ----------------------------------------------------------|
G  ----9-----------9----------9-------9--11--12h11--9--11----|
D  -------6--9--6----6--9--6-------9-------------------------|
A  ------------------------------7---------------------------|
E  ----------------------------------------------------------|

    Ive been alone this lonely road, looks like Im not coming home

E  ----------------------------------------------------------|
B  ----------------------------------------------------------|
G  -------8------------6-------------4---------8-------------|
D  -----------6--9--6------4--7--4------6--9------9--6-------|
A  ------------------------------------------------------6---|
E  ----------------------------------------------------------|

    But I dont mind                   (B)

E  ------------------------------------2---------------------|
B  ------------------------------------4---------------------|
G  -------8------------6---------------4---------------------|
D  -----------6--9--6------4--7--4-----4---------------------|
A  ------------------------------------2---------------------|
E  ------------------------------------2---------------------|

    please dont cry
Tap to rate this tab
# A B C D E F G H I J K L M N O P Q R S T U V W X Y Z