Song name
# A B C D E F G H I J K L M N O P Q R S T U V W X Y Z

The Putrid Flowers - 21 tab

(/) Slide Up  (\) Slide Down  (h) Hammer On  (p) Pull Off  (b) Bend (r) Release (v) Vibrato

E|------------------------------------------------------------------|
B|------------------------------------------------------------------|
G|------10-8--8-10-8------------8-------8---8-10-11-10-8-11-10-8----|
D|11-11-----11-------11--10--10--10--10--10-------------------------|
A|--------------------------11------11------------------------------|
E|------------------------------------------------------------------|


E|-----------------------------------------------------------------------|
B|-----------------------------------------------14-13-9-13-14-13-9-8----|
G|--11-10-8------10-8---8-10-10-10-13-13-13-13---------------------------|
D|11--------11-11-----11-------------------------------------------------|
A|-----------------------------------------------------------------------|
E|-----------------------------------------------------------------------|


E|--------------------------|
B|-7-7-9-7-9b-9-7-6-7-6-9---|
G|--------------------------|
D|--------------------------|
A|--------------------------|
E|--------------------------|
							http://www.guitartabcreator.com

This is my first tab ever, so please be gentle. I'm fairly certain its accurate, it does
sound very close to the album version on "...and for the little children sing." If
anything's wrong with it, please email me suggestions at eva (zero) (four) product (at) 
gmail (dot) com, with the stuff in parentheses being symbols.
Tap to rate this tab
# A B C D E F G H I J K L M N O P Q R S T U V W X Y Z