Song name
# A B C D E F G H I J K L M N O P Q R S T U V W X Y Z

The Qemists - Stompbox tab

-------------------------------------------------------------------------------
			     Stompbox - Qemists
-------------------------------------------------------------------------------
Tabbed by:Sk


Tuning: Standard
(Distortion)
e|--------------------------------------------------------------------------|
B|--------------------------------------------------------------------------|
G|-7------------------------------------------------------------------------|
D|-5-3----------------------------------------------------------------------|
A|-----5-3-1-br3-1--5-5-----------------------------------------------------|
E|------------------3-3-----------------------------------------------------|

That's the wicked riff at the start then!
You don't have to play the chords as well, you can just play the base note.
************************************
thanks!
| /   slide up
| \   slide down
| h   hammer-on
| p   pull-off
| ~   vibrato
| +   harmonic
| x   Mute note
| b   Bend
| pb  Pre-bend
| br  Bend release
| pbr Pre-bend release
| brb Bend release bend

************************************
Tap to rate this tab
 
# A B C D E F G H I J K L M N O P Q R S T U V W X Y Z