Song name
# A B C D E F G H I J K L M N O P Q R S T U V W X Y Z

The Razorbax - Something To Believe In tab

-------------------------------------------------------------------------------
                Something To Belive In - The Razorbax
-------------------------------------------------------------------------------
Bands Website: http://www.therazorbax.co.uk/
Tabbed by: Foxboron
Email: mc-ax@hotmail.com

Tuning: Standar


First tab!

Enjoi!

Intro
hit the chords until you hear the change :3
e|--------------|
B|--------------|
G|-------9---7--|
D|---7---9---7--|
A|---7---7---5--| x4
E|---5----------|

Verse:

e|--------------------|
B|--------------------|
G|--9-9~-7-7-7--------|
D|--9-9~-7-7-7-7-7-7--|
A|--7-7~-5-5-5-7-7-7--|
E|-------------5-5-5--|

Pre-Chourse:

e|--------------------|
B|--------------------|
G|-------9~-----------|
D|--7-7~-9~-----------|
A|--7-7~-7~-----------|
E|--5-5~--------------|

Chourse:

(same as intro)
e|--------------|
B|--------------|
G|-------9---7--|
D|---7---9---7--|
A|---7---7---5--| x4
E|---5----------|

After Chourse:

e|--------------------|
B|--------------------|
G|--9-9~-7-7-7--------|
D|--9-9~-7-7-7-7-7-7--|
A|--7-7~-5-5-5-7-7-7--|
E|-------------5-5-5--|

before the verse starts

E|--------------------|
B|--------------------|
G|-------9~-----------|
D|--7-7~-9~-----------|
A|--7-7~-7~-----------|
E|--5-5~--------------|

Verse 2:

unable to tab this. but it should be the same CHORDS as the first verse.

Solo:
no tabs.. yet O.o

End:
e|--------------------|
B|--------------------|
G|--9~--7~------------|
D|--9~--7~--7~--------|
A|--7~--5~--7~--------|
E|----------5~--------|

************************************

| /   slide up
| \   slide down
| h   hammer-on
| p   pull-off
| ~   vibrato
| +   harmonic
| x   Mute note
| b   Bend
| pb  Pre-bend
| br  Bend release
| pbr Pre-bend release
| brb Bend release bend
Tap to rate this tab
# A B C D E F G H I J K L M N O P Q R S T U V W X Y Z