Song name
# A B C D E F G H I J K L M N O P Q R S T U V W X Y Z

The Red Jumpsuit Apparatus - Represent tab

                     REPRESENT - THE RED JUMPSUIT APPARATUS 

Email: mystery_rider06@yahoo.com

Tuning: Drop C

Intro 

Guitar 1 
|---------------------------------------------------------------------------|
|---------------------------------------------------------------------------|
|---------------------------------------------------------------------------|
|------9-9--9-9-9-12-12---12-12-12-11-11---11-11-11-12-12----12-12-12-------|
|------9-9--9-9-9-9--9----9--9--9--9--9----9--9--9--9--9-----9--9--9--------|
|------9-9--9-9-9-9--9----9--9--9--9--9----9--9--9--9--9-----9--9--9--------|

|---------------------------------------------------------------------------|
|---------------------------------------------------------------------------|
|-------------7-7-7-6-6----6-6-6-7-7----7-7-7-6-6--6-6-6--------------------|
|------5-5----5-5-5-5-5----5-5-5-5-5----5-5-5-5-5--5-5-5--------------------|
|------5-5----5-5-5-5-5----5-5-5-5-5----5-5-5-5-5--5-5-5--------------------|
|------5-5----5-5-5-5-5----5-5-5-5-5----5-5-5-5-5--5-5-5--------------------|

Guitar 2
|---------------------------------------------------------------------------|
|---------------------------------------------------------------------------|
|---------------------------------------------------------------------------|
|---------------------------------------------------------------------------|
|---------------------------------------------------------------------------|
|---------------------------------------------------------------------------|

|---------------------------------------------10-12-10-9-10-----------------|
|-----------------------------------------------------------12--------------|
|---------------------------------------------------------------------------|
|---------------------------------------------------------------------------|
|---------------------------------------------------------------------------|
|---------------------------------------------------------------------------|


Verse 1

|---------------------------------------------------------------------------|
|---------------------------------------------------------------------------|
|---------------------------------------------------------------------------|
|------9-9--9-9-9-12-12---12-12-12-11-11---11-11-11-12-12----12-12-12-------|
|------9-9--9-9-9-9--9----9--9--9--9--9----9--9--9--9--9-----9--9--9--------|
|------9-9--9-9-9-9--9----9--9--9--9--9----9--9--9--9--9-----9--9--9--------|

|---------------------------------------------------------------------------|
|---------------------------------------------------------------------------|
|-------------7-7-7-6-6----6-6-6-7-7----7-7-7-6-6--6-6-6--------------------|
|------5-5----5-5-5-5-5----5-5-5-5-5----5-5-5-5-5--5-5-5--------------------|
|------5-5----5-5-5-5-5----5-5-5-5-5----5-5-5-5-5--5-5-5--------------------|
|------5-5----5-5-5-5-5----5-5-5-5-5----5-5-5-5-5--5-5-5--------------------|

|---------------------------------------------------------------------------|
|---------------------------------------------------------------------------|
|---------------------------------------------------------------------------|
|------9-9--9-9-9-12-12---12-12-12-11-11---11-11-11-12-12----12-12-12-------|
|------9-9--9-9-9-9--9----9--9--9--9--9----9--9--9--9--9-----9--9--9--------|
|------9-9--9-9-9-9--9----9--9--9--9--9----9--9--9--9--9-----9--9--9--------|

|---------------------------------------------------------------------------|
|---------------------------------------------------------------------------|
|-------------7-7-7-6-6----6-6-6-7-7----7-7-7-6-6--6-6-6--------------------|
|------5-5----5-5-5-5-5----5-5-5-5-5----5-5-5-5-5--5-5-5--------------------|
|------5-5----5-5-5-5-5----5-5-5-5-5----5-5-5-5-5--5-5-5--------------------|
|------5-5----5-5-5-5-5----5-5-5-5-5----5-5-5-5-5--5-5-5--------------------|


Chorus 

|---------------------------------------------------------------------------|
|---------------------------------------------------------------------------|
|----7--------7-------------------------------------------------------------|
|----7--------7--------7--------7--------9--------9--------5--------7-------|
|----5--------5--------7--------7--------9--------9--------5--------7-------|
|----------------------7--------7--------9--------9--------5--------7-------|


Verse 2

|---------------------------------------------------------------------------|
|---------------------------------------------------------------------------|
|---------------------------------------------------------------------------|
|------9-9--9-9-9-12-12---12-12-12-11-11---11-11-11-12-12----12-12-12-------|
|------9-9--9-9-9-9--9----9--9--9--9--9----9--9--9--9--9-----9--9--9--------|
|------9-9--9-9-9-9--9----9--9--9--9--9----9--9--9--9--9-----9--9--9--------|

|---------------------------------------------------------------------------|
|---------------------------------------------------------------------------|
|-------------7-7-7-6-6----6-6-6-7-7----7-7-7-6-6--6-6-6--------------------|
|------5-5----5-5-5-5-5----5-5-5-5-5----5-5-5-5-5--5-5-5--------------------|
|------5-5----5-5-5-5-5----5-5-5-5-5----5-5-5-5-5--5-5-5--------------------|
|------5-5----5-5-5-5-5----5-5-5-5-5----5-5-5-5-5--5-5-5--------------------|

|---------------------------------------------------------------------------|
|---------------------------------------------------------------------------|
|---------------------------------------------------------------------------|
|------9-9--9-9-9-12-12---12-12-12-11-11---11-11-11-12-12----12-12-12-------|
|------9-9--9-9-9-9--9----9--9--9--9--9----9--9--9--9--9-----9--9--9--------|
|------9-9--9-9-9-9--9----9--9--9--9--9----9--9--9--9--9-----9--9--9--------|

|---------------------------------------------------------------------------|
|---------------------------------------------------------------------------|
|-------------7-7-7-6-6----6-6-6-7-7----7-7-7-6-6--6-6-6--------------------|
|------5-5----5-5-5-5-5----5-5-5-5-5----5-5-5-5-5--5-5-5--------------------|
|------5-5----5-5-5-5-5----5-5-5-5-5----5-5-5-5-5--5-5-5--------------------|
|------5-5----5-5-5-5-5----5-5-5-5-5----5-5-5-5-5--5-5-5--------------------|

Guitar 2
|---------------------------------------------------------------------------|
|---------------------------------------------------------------------------|
|---------------------------------------------------------------------------|
|---------------------------------------------------------------------------|
|---------------------------------------------------------------------------|
|---------------------------------------------------------------------------|

|---------------------------------------------------------------------------|
|---------------------------------------------------------------------------|
|------11--9--9--------9--9-11--9--9--------9--9----------------------------|
|--------12-12-12-11-12-12-12-12-12-12-11-12-12-12--------------------------|
|---------------------------------------------------------------------------|
|---------------------------------------------------------------------------|


|---------------------------------------------------------------------------|
|---------------------------------------------------------------------------|
|------11--9--9--------9--9-11--9--9--------9--9----------------------------|
|--------12-12-12-11-12-12-12-12-12-12-11-12-12-12--------------------------|
|---------------------------------------------------------------------------|
|---------------------------------------------------------------------------|

|---------------------------------------------------------------------------|
|---------------------------------------------------------------------------|
|------11--9--9--------9--9-11--9--9--------9--9----------------------------|
|--------12-12-12-11-12-12-12-12-12-12-11-12-12-12--------------------------|
|---------------------------------------------------------------------------|
|---------------------------------------------------------------------------|


Chorus 

|---------------------------------------------------------------------------|
|---------------------------------------------------------------------------|
|----7--------7-------------------------------------------------------------|
|----7--------7--------7--------7--------9--------9--------5--------7-------|
|----5--------5--------7--------7--------9--------9--------5--------7-------|
|----------------------7--------7--------9--------9--------5--------7-------|

|---------------------------------------------------------------------------|
|---------------------------------------------------------------------------|
|----7--------7-------------------------------------------------------------|
|----7--------7--------7--------7--------9--------9--------5--------7-------|
|----5--------5--------7--------7--------9--------9--------5--------7-------|
|----------------------7--------7--------9--------9--------5--------7-------|

Bridge 

Guitar 1
|---------------------------------------------------------------------------|
|---------------------------------------------------------------------------|
|---------------------------------------------------------------------------|
|----9-----------------9--5--------------5----------------------------------|
|----9-----------------9--5--------------5----------------------------------|
|----9-----------------9--5--------------5----------------------------------|

|---------------------------------------------------------------------------|
|---------------------------------------------------------------------------|
|---------------------------------------------------------------------------|
|----9-----------------9--5--------------5----------------------------------|
|----9-----------------9--5--------------5----------------------------------|
|----9-----------------9--5--------------5----------------------------------|

|---------------------------------------------------------------------------|
|---------------------------------------------------------------------------|
|---------------------------------------------------------------------------|
|----9-----------------9--5--------------5----------------------------------|
|----9-----------------9--5--------------5----------------------------------|
|----9-----------------9--5--------------5----------------------------------|

|---------------------------------------------------------------------------|
|---------------------------------------------------------------------------|
|---------------------------------------------------------------------------|
|----9-----------------9--5555555577777777----------------------------------|
|----9-----------------9--5555555577777777----------------------------------|
|----9-----------------9--5555555577777777----------------------------------|

==============================================================================

|---------------------------------------------------------------------------|
|---------------------------------------------------------------------------|
|----7777777777777777777----------------------------------------------------|
|----77777777777777777777777777777777777799999999999999999955555555577777777|
|----55555555555555555577777777777777777799999999999999999955555555577777777|
|----------------------77777777777777777799999999999999999955555555577777777|\
                                                                              \
Guitar 2                                                                       \
                                                                            \ played the same time
|----15p14-14----------------------|    |14-14-14h17----|                       /
|----------------------------------|    |---------------|                      /
|----------------------------------|8x  |---------------|4x                   /
|----------------------------------|    |---------------|                    /
|----------------------------------|    |---------------|  
|----------------------------------|    |---------------|  

Chorus

Guitar 1

|---------------------------------------------------------------------------|
|---------------------------------------------------------------------------|
|----7--------7-------------------------------------------------------------|
|----7--------7--------7--------7--------9--------9--------5--------7-------|
|----5--------5--------7--------7--------9--------9--------5--------7-------|
|----------------------7--------7--------9--------9--------5--------7-------|

|---------------------------------------------------------------------------|
|---------------------------------------------------------------------------|
|----7--------7-------------------------------------------------------------|
|----7--------7--------7--------7--------9--------9--------5--------7-------|
|----5--------5--------7--------7--------9--------9--------5--------7-------|
|----------------------7--------7--------9--------9--------5--------7-------|

Guitar 2

|--14-14-14-14-14-14-14-14-14-14-14-14-12-12-12-12-12-12-12-12-12-12-12-12--|
|---------------------------------------------------------------------------|
|---------------------------------------------------------------------------|
|---------------------------------------------------------------------------|
|---------------------------------------------------------------------------|
|---------------------------------------------------------------------------|

|--10-10-10-10-10-10-12-12-10-10-9-10-9-10-10-10-10-10-10-12-12-12-14-14-14-|
|---------------------------------------------------------------------------|
|---------------------------------------------------------------------------|
|---------------------------------------------------------------------------|
|---------------------------------------------------------------------------|
|---------------------------------------------------------------------------|

|--14-14-14-14-14-14-14-14-14-14-14-14-12-12-12-12-12-12-12-12-12-12-12-12--|
|---------------------------------------------------------------------------|
|---------------------------------------------------------------------------|
|---------------------------------------------------------------------------|
|---------------------------------------------------------------------------|
|---------------------------------------------------------------------------|

|--10-10-10-10-10-10-12-12-10-10-9-10-9-10-10-10-10-10-10-12-12-12-12-12-12-|
|---------------------------------------------------------------------------|
|---------------------------------------------------------------------------|
|---------------------------------------------------------------------------|
|---------------------------------------------------------------------------|
|---------------------------------------------------------------------------|

|--14-----------------------------------------------------------------------|
|---------------------------------------------------------------------------|
|---------------------------------------------------------------------------|
|---------------------------------------------------------------------------|
|---------------------------------------------------------------------------|
|---------------------------------------------------------------------------|






Tap to rate this tab
# A B C D E F G H I J K L M N O P Q R S T U V W X Y Z