Song name
# A B C D E F G H I J K L M N O P Q R S T U V W X Y Z

The Red Jumpsuit Apparatus - Cat And Mouse tab

Song: Cat and Mouse
Artist: The Red Jumpsuit Apparatus
Album: Don't You Fake It
Tabbed by:  excellent123


So this is my first tab and i'm not sure if the intro is 100% right but i think so =)


Intro:

e|------0---0-------0---0-----0-3-0-3-0-8-0-7-0-5------|
B|----1---1---1---1---1---1-1--------------------------|
G|--2-----------0--------------------------------------|
D|-----------------------------------------------------|
A|-----------------------------------------------------|
E|-----------------------------------------------------|

e|------0---0-------0---0-----0-3-0-3-0-8-0-10-0-12----|
B|----1---1---1---1---1---1-1--------------------------|
G|--2-----------0--------------------------------------|
D|-----------------------------------------------------|
A|-----------------------------------------------------|
E|-----------------------------------------------------|

e|----1-0---1-0---1-0---1-0-----8-0-7-0-5--------------|
B|--------1-----------1-----1--------------------------|
G|--2-----------0--------------------------------------|
D|-----------------------------------------------------|
A|-----------------------------------------------------|
E|-----------------------------------------------------|

e|----1-0---1-0---1-0---1-0----------------------------|
B|--------1-----------1-----1--------------------------|
G|--2-----------0--------------------------------------|
D|-----------------------------------------------------|
A|-----------------------------------------------------|
E|-----------------------------------------------------|

Vers1:

          Am         G          C          
e|--------0----------3----------0---------------|
B|--------1----------3----------1---------------|
G|--------2----------0----------0---------------|
D|--------2----------0----------2---------------|
A|--------0----------2----------3---------------|
E|-------------------3--------------------------|


Chorus:

          Am         C          F          
e|--------0----------0----------1---------------|
B|--------1----------1----------1---------------|
G|--------2----------0----------2---------------|
D|--------2----------2----------3---------------|
A|--------0----------3----------3---------------|
E|------------------------------1---------------|


Vers2:

          Am         G          C          
e|--------0----------3----------0---------------|
B|--------1----------3----------1---------------|
G|--------2----------0----------0---------------|
D|--------2----------0----------2---------------|
A|--------0----------2----------3---------------|
E|-------------------3--------------------------|


Chorus:

          Am         C          F          
e|--------0----------0----------1---------------|
B|--------1----------1----------1---------------|
G|--------2----------0----------2---------------|
D|--------2----------2----------3---------------|
A|--------0----------3----------3---------------|
E|------------------------------1---------------|

Bridge:

     G      F      G      F      Am     C      F      Am     C      F
e|---3------1------3------1------0------0------1------0------0------1------|
B|---3------1------3------1------1------1------1------1------1------1------|
G|---0------2------0------2------2------0------2------2------0------2------|
D|---0------3------0------3------2------2------3------2------2------3------|
A|---2------3------2------3------0------3------3------0------3------3------|
E|---3------1------3------1--------------------1--------------------1------|


Chorus:

          Am         C          F          
e|--------0----------0----------1---------------|
B|--------1----------1----------1---------------|
G|--------2----------0----------2---------------|
D|--------2----------2----------3---------------|
A|--------0----------3----------3---------------|
E|------------------------------1---------------|


Finish!!!
Tap to rate this tab
# A B C D E F G H I J K L M N O P Q R S T U V W X Y Z