Song name
# A B C D E F G H I J K L M N O P Q R S T U V W X Y Z

The Reign Of Kindo - Let It Go tab

Tabbed by: Paul Houser

I am missing the last tiny part of the solo but the rest should be pretty straightforward. Enjoy!

E|---1--------1------------1-3-5-3-------1--------------------|     INTRO
B|----------3---3--------3-------------3--5-------------------|
G|-2------2-------0----2------------2-------7-5-------------5-|
D|-0----0------------0------------0-------------7-5---5-7-5---|
A|--------------------------------------------------5---------|
E|------------------------------------------------------------|


I can tell that somethings different tonight...
E|---0---------|
B|-----1---3---|
G|-2-----2---2-|
D|-------------|
A|-------------|
E|-------------|

These moments i can't talk about
E|-1------|
B|---3----|
G|-----2--|
D|-------0|
A|--------|
E|--------|

Chorus:
Chords
Gm (strum 3 times)
Am (strum 1x)
Bb (Strum 3x)

..and  don't beleive I could let it go
E|-------1-------1-----1-0---------------------1-|Repeat 1x
B|-----3-------3-----2-----3-1---1-3---3-----3---|
G|---2-------2-----2-----------2-----0-----2-----|
D|-0-------0-----------------------------0-------|
A|-----------------------------------------------|
E|-----------------------------------------------|

E|-1---------1---|
B|---3---------3-|
G|-----2---2-----|
D|-------0-------|
A|---------------|
E|---------------|

E|-------0-1---|
B|-----1-----3-|
G|---2---------|
D|-2-----------|
A|-------------|
E|-------------|

E|-----|
B|-----|
G|-----|
D|-7p0-|
A|-----|
E|-----|

E|-------1-0-5---|
B|-----3-------3-|
G|---2-----------|
D|-0-------------|
A|---------------|
E|---------------|

Repeat chorus

...And i don't beleive that i would let it go.
E|-------1-------1-----1-0---------------------1-|
B|-----3-------3-----2-----3-1---1-3---3-----3---|
G|---2-------2-----2-----------2-----0-----2-----|
D|-0-------0-----------------------------0-------|
A|-----------------------------------------------|
E|-----------------------------------------------|


E|-------1-----1-0-----------------------|
B|-----3-----2-----3-1---1-3---3-----1---|
G|---2-----2-----------2-----0-----2-----|
D|-0-----------------------------2-------|
A|---------------------------------------|
E|---------------------------------------|

Bare my own shame...
E|
B|
G|
D|
A|
E|

Solo
E|---------------3-5-3----------7---5---3-------------------|
B|---6-6-4---6-4-------6-8-9-10---8---6---5-5h6p5---5-------|
G|-5-------5--------------------------------------7-------5-|
D|----------------------------------------------------7-5---|
A|----------------------------------------------------------|
E|----------------------------------------------------------|

E|---------------------------------------10----------13-------------|
B|-8p5-6---6-------------------------6-8----13-11-11----13-11-12-10-|
G|-------7-------7-5-------------5-7--------------------------------|
D|-----------5-7-----7-5-----5-5------------------------------------|
A|-----------------------5-7----------------------------------------|
E|------------------------------------------------------------------|

Tap to rate this tab
# A B C D E F G H I J K L M N O P Q R S T U V W X Y Z