Song name
# A B C D E F G H I J K L M N O P Q R S T U V W X Y Z

The Rock And Roll Machine - Want You Bad tab


The Rock And Roll Machine
Want U Bad
The Rock And Roll Machine

Matt Stroobant plays with a blues distortion, fuzz and also fuzz-wah so it helps with 
sound if you have a version of these but a single fuzz pedal combined with amp gain will 
fine.

Intro
|  --4---4-4-4---4-4-4---4-4-4---4-4-4---4-4-4---4-4-4---4-4-4---4-4-4---------  |
|  --4---4-4-4---4-4-4---4-4-4---4-4-4---4-4-4---4-4-4---4-4-4---4-4-4---------  |
|  --3---3-3-3---3-3-3---3-3-3---3-3-3---3-3-3---3-3-3---3-3-3---3-3-3---------  |
|  --4---4-4-4---4-4-4---4-4-4---4-4-4---4-4-4---4-4-4---4-4-4---4-4-4---------  |
|  --4---4-4-4---4-4-4---4-4-4---4-4-4---4-4-4---4-4-4---4-4-4---4-4-4---------  |
|  --2---2-0-2---2-0-2---2-0-2---2-0-2---2-0-2---2-0-2---2-0-2---2-0-2---------  |

Verse
|  -----4-4-4---4-4-4---4-4-4---4-4-4--------------------------------- -- |
|  -----4-4-4---4-4-4---4-4-4---4-4-4-----2--3-3-3------------------ ---- |
|  -----3-3-3---3-3-3---3-3-3---3-3-3-----2--4-4-4------------------ ---- |
|  -----4-4-4---4-4-4---4-4-4---4-4-4-----2--4-4-4------------------ ---- |
|  -----4-4-4---4-4-4---4-4-4---4-4-4-----0--2-2-2------------------ ---- |
|  -----2-0-2---2-0-2---2-0-2---2-0-2------------------------------------ |

|  ---4-4-4---4-4-4---4-4-4---4-4-4---4-4-4---4-4-4---4-4-4---4-4-4------------ -- |
|  ---4-4-4---4-4-4---4-4-4---4-4-4---4-4-4---4-4-4---4-4-4---4-4-4---2--3---- --- |
|  ---3-3-3---3-3-3---3-3-3---3-3-3---3-3-3---3-3-3---3-3-3---3-3-3---2--4---- --- |
|  ---4-4-4---4-4-4---4-4-4---4-4-4---4-4-4---4-4-4---4-4-4---4-4-4---2--4---- --- |
|  ---4-4-4---4-4-4---4-4-4---4-4-4---4-4-4---4-4-4---4-4-4---4-4-4---0--2---- --- |
|  ---2-0-2---2-0-2---2-0-2---2-0-2---2-0-2---2-0-2---2-0-2---2-0-2------------ -- |

Chorus
|  -----4-4-4---4-4-4------------------------------------ -- |
|  -----4-4-4---4-4-4---2--3---------------------------- --- |
|  -----3-3-3---3-3-3---2--4---------------------------- --- |
|  -----4-4-4---4-4-4---2--4---------------------------- --- |
|  -----4-4-4---4-4-4---0--2---------------------------- --- |
|  -----2-0-2---2-0-2--------------------------------------- |

|  -----4-4-4---4-4-4------------------------------------ -- |
|  -----4-4-4---4-4-4---2--3---------------------------- --- |
|  -----3-3-3---3-3-3---2--4---------------------------- --- |
|  -----4-4-4---4-4-4---2--4---------------------------- --- |
|  -----4-4-4---4-4-4---0--2---------------------------- --- |
|  -----2-0-2---2-0-2--------------------------------------- |

|  ---4-4-4---4-4-4---4-4-4---4-4-4---4-4-4---4-4-4---4-4-4---4-4-4-----------  |
|  ---4-4-4---4-4-4---4-4-4---4-4-4---4-4-4---4-4-4---4-4-4---4-4-4-----------  |
|  ---3-3-3---3-3-3---3-3-3---3-3-3---3-3-3---3-3-3---3-3-3---3-3-3------------ |
|  ---4-4-4---4-4-4---4-4-4---4-4-4---4-4-4---4-4-4---4-4-4---4-4-4-----------  |
|  ---4-4-4---4-4-4---4-4-4---4-4-4---4-4-4---4-4-4---4-4-4---4-4-4-----------  |
|  ---2-0-2---2-0-2---2-0-2---2-0-2---2-0-2---2-0-2---2-0-2---2-0-2-----------  |


|  -----4-4-4---4-4-4---4-4-4----------------------------------------- --- |
|  -----4-4-4---4-4-4---4-4-4---4b-2----2---3-3-3------------------ ------ |
|  -----3-3-3---3-3-3---3-3-3---4b-2----2---4-4-4------------------ ------ |
|  -----4-4-4---4-4-4---4-4-4-------------2---4-4-4------------------ ---- |
|  -----4-4-4---4-4-4---4-4-4-------------0---2-2-2------------------ ---- |
|  -----2-0-2---2-0-2---2-0-2--------------------------------------------- |

|  ---4-4-4---4-4-4---4-4-4---4-4-4---4-4-4---4-4-4---4-4-4-------------- ----------- |
|  ---4-4-4---4-4-4---4-4-4---4-4-4---4-4-4---4-4-4---4-4-4---4b-2-- -2---3---- ----- |
|  ---3-3-3---3-3-3---3-3-3---3-3-3---3-3-3---3-3-3---3-3-3---4b-2-- -2---4---------- |
|  ---4-4-4---4-4-4---4-4-4---4-4-4---4-4-4---4-4-4---4-4-4------------2---4------ -- |
|  ---4-4-4---4-4-4---4-4-4---4-4-4---4-4-4---4-4-4---4-4-4---------- --0---2----- -- |
|  ---2-0-2---2-0-2---2-0-2---2-0-2---2-0-2---2-0-2---2-0-2---------------------- --- |

Chorus
|  -----4-4-4---4-4-4------------------------------------ -- |
|  -----4-4-4---4-4-4---2--3---------------------------- --- |
|  -----3-3-3---3-3-3---2--4---------------------------- --- |
|  -----4-4-4---4-4-4---2--4---------------------------- --- |
|  -----4-4-4---4-4-4---0--2---------------------------- --- |
|  -----2-0-2---2-0-2--------------------------------------- |

|  -----4-4-4---4-4-4------------------------------------ -- |
|  -----4-4-4---4-4-4---2--3---------------------------- --- |
|  -----3-3-3---3-3-3---2--4---------------------------- --- |
|  -----4-4-4---4-4-4---2--4---------------------------- --- |
|  -----4-4-4---4-4-4---0--2---------------------------- --- |
|  -----2-0-2---2-0-2--------------------------------------- |

|  -----4-4-4---4-4-4------------------------------------ -- |
|  -----4-4-4---4-4-4---2--3---------------------------- --- |
|  -----3-3-3---3-3-3---2--4---------------------------- --- |
|  -----4-4-4---4-4-4---2--4---------------------------- --- |
|  -----4-4-4---4-4-4---0--2---------------------------- --- |
|  -----2-0-2---2-0-2--------------------------------------- |

|  -----4-4-4---4-4-4------------------------------------------ -- |
|  -----4-4-4---4-4-4---2--3---2--3---2--2------------------ ----- |
|  -----3-3-3---3-3-3---2--4---2--4---2--4------------------ ----- |
|  -----4-4-4---4-4-4---2--4---2--4---2--4------------------ ----- |
|  -----4-4-4---4-4-4---0--2---0--2---0--2------------------ ----- |
|  -----2-0-2---2-0-2--------------------------------------------- |

Solo(Wah On, Fuzz On)
|  --5-5-5-5-5-5-5-5-5-5-5-5-5-5-5-5----------------------------------------- ------------ |
|  --5-5-5-5-5-5-5-5-5-5-5-5-5-5-5-5--------------4b-2---4b-2------------4b-2--4b-2--4b-2- |
|  --5-5-5-5-5-5-5-5-5-5-5-5-5-5-5-5--------------4b-2---4b-2------------4b-2--4b-2--4b-2- |
|  --------------------------------------------------------------------------------------- |
|  ---------------------------------------------2b-lr------------------------------------- |
|  -------------------------------------------------------------------------5b-lr--------- |

He then goes into some freak out wah thing which is hard to tab so I left it out but the 
underneath is just playing this over and over again.


|  --4-4--------------4----------------------------------- --- |
|  --4-4-----2-2-----3---------------------------------------- |
|  --3-3-----2-2-----4----------------------------------- ---- |
|  --4-4-----2-2-----4---------------------------------------- |
|  --4-4-----0-0-----2----------------------------------- ---- |
|  --2-2------------------------------------------------------ |

Verse(Fuzz and Wah off)
|  ----------------------------4-4-------------------------------------------- --- |
|  ---------------------2-2---3-3------------------------------------------------- |
|  ---------------------2-2---4-4-------------------------------------------- ---- |
|  ---------------------2-2---4-4------------------------------------------------- |
|  ----------------/2---0-0---2-2-------------------------------------------- ---- |
|  ----------------/2------------------------------------------------------------- |

|  ---4-4-4---4-4-4---4-4-4---4-4-4---4-4-4---4-4-4---4-4-4---------------------- -- |
|  ---4-4-4---4-4-4---4-4-4---4-4-4---4-4-4---4-4-4---4-4-4---4b-2-- -2---3---- ---- |
|  ---3-3-3---3-3-3---3-3-3---3-3-3---3-3-3---3-3-3---3-3-3---4b-2-- -2---4--------- |
|  ---4-4-4---4-4-4---4-4-4---4-4-4---4-4-4---4-4-4---4-4-4------------2---4----- -- |
|  ---4-4-4---4-4-4---4-4-4---4-4-4---4-4-4---4-4-4---4-4-4---------- --0---2---- -- |
|  ---2-0-2---2-0-2---2-0-2---2-0-2---2-0-2---2-0-2---2-0-2---------------------- -- |

Chorus
|  -----4-4-4---4-4-4------------------------------------ -- |
|  -----4-4-4---4-4-4---2--3---------------------------- --- |
|  -----3-3-3---3-3-3---2--4---------------------------- --- |
|  -----4-4-4---4-4-4---2--4---------------------------- --- |
|  -----4-4-4---4-4-4---0--2---------------------------- --- |
|  -----2-0-2---2-0-2--------------------------------------- |

|  -----4-4-4---4-4-4------------------------------------ -- |
|  -----4-4-4---4-4-4---2--3---------------------------- --- |
|  -----3-3-3---3-3-3---2--4---------------------------- --- |
|  -----4-4-4---4-4-4---2--4---------------------------- --- |
|  -----4-4-4---4-4-4---0--2---------------------------- --- |
|  -----2-0-2---2-0-2--------------------------------------- |

|  -----4-4-4---4-4-4------------------------------------ -- |
|  -----4-4-4---4-4-4---2--3---------------------------- --- |
|  -----3-3-3---3-3-3---2--4---------------------------- --- |
|  -----4-4-4---4-4-4---2--4---------------------------- --- |
|  -----4-4-4---4-4-4---0--2---------------------------- --- |
|  -----2-0-2---2-0-2--------------------------------------- |

|  -----4-4-4---4-4-4------------------------------------------------------------ -- |
|  -----4-4-4---4-4-4---2--3---2--3---2--3--2-3---2-3---3-3-3-3-3-3-3-3- ----------- |
|  -----3-3-3---3-3-3---2--4---2--4---2--4--2-4---2-4---4-4-4-4-4-4-4-4- ----------- |
|  -----4-4-4---4-4-4---2--4---2--4---2--4--2-4---2-4---4-4-4-4-4-4-4-4- ----------- |
|  -----4-4-4---4-4-4---0--2---0--2---0--2--02----0-2---2-2-2-2-2-2-2-2- ----------- |
|  -----2-0-2---2-0-2--------------------------------------------------------------- |

Chorus 2(fuzz on)

|  --4-4-4-4-4-4-4-4----------------------------4-4-4-4-4-4-4-4------------------- |
|  --4-4-4-4-4-4-4-4---2-2-2-2----3-3-3-3---4-4-4-4-4-4-4-4----2-2-2-2----3-3-3-3- |
|  --3-3-3-3-3-3-3-3---2-2-2-2----4-4-4-4---3-3-3-3-3-3-3-3----2-2-2-2----4-4-4-4- |
|  --4-4-4-4-4-4-4-4---2-2-2-2----4-4-4-4---4-4-4-4-4-4-4-4----2-2-2-2----4-4-4-4- |
|  --4-4-4-4-4-4-4-4---0-0-0-0----2-2-2-2---4-4-4-4-4-4-4-4----0-0-0-0----2-2-2-2- |
|  --2-2-2-2-2-2-2-2----------------------------2-2-2-2-2-2-2-2------------------- |

|  --4-4-4-4-4-4-4-4----------------------------4-4-4-4-4-4-4-4------------------- |
|  --4-4-4-4-4-4-4-4---2-2-2-2----3-3-3-3---4-4-4-4-4-4-4-4----2-2-2-2----3-3-3-3- |
|  --3-3-3-3-3-3-3-3---2-2-2-2----4-4-4-4---3-3-3-3-3-3-3-3----2-2-2-2----4-4-4-4- |
|  --4-4-4-4-4-4-4-4---2-2-2-2----4-4-4-4---4-4-4-4-4-4-4-4----2-2-2-2----4-4-4-4- |
|  --4-4-4-4-4-4-4-4---0-0-0-0----2-2-2-2---4-4-4-4-4-4-4-4----0-0-0-0----2-2-2-2- |
|  --2-2-2-2-2-2-2-2----------------------------2-2-2-2-2-2-2-2------------------- |

|  --4-4-4-4-4-4-4-4----------------------------4-4-4-4-4-4-4-4------------------- |
|  --4-4-4-4-4-4-4-4---2-2-2-2----3-3-3-3---4-4-4-4-4-4-4-4----2-2-2-2----3-3-3-3- |
|  --3-3-3-3-3-3-3-3---2-2-2-2----4-4-4-4---3-3-3-3-3-3-3-3----2-2-2-2----4-4-4-4- |
|  --4-4-4-4-4-4-4-4---2-2-2-2----4-4-4-4---4-4-4-4-4-4-4-4----2-2-2-2----4-4-4-4- |
|  --4-4-4-4-4-4-4-4---0-0-0-0----2-2-2-2---4-4-4-4-4-4-4-4----0-0-0-0----2-2-2-2- |
|  --2-2-2-2-2-2-2-2----------------------------2-2-2-2-2-2-2-2------------------- |

|  --4-4-4-4-4-4-4-4----------------------------4-4-4-4-4-4-4-4------------------- |
|  --4-4-4-4-4-4-4-4---2-2-2-2----3-3-3-3---4-4-4-4-4-4-4-4----2-2-2-2----3-3-3-3- |
|  --3-3-3-3-3-3-3-3---2-2-2-2----4-4-4-4---3-3-3-3-3-3-3-3----2-2-2-2----4-4-4-4- |
|  --4-4-4-4-4-4-4-4---2-2-2-2----4-4-4-4---4-4-4-4-4-4-4-4----2-2-2-2----4-4-4-4- |
|  --4-4-4-4-4-4-4-4---0-0-0-0----2-2-2-2---4-4-4-4-4-4-4-4----0-0-0-0----2-2-2-2- |
|  --2-2-2-2-2-2-2-2----------------------------2-2-2-2-2-2-2-2------------------- |

|  --4-4-4-4-4-4-4-4----------------------------4-4-4-4-4-4-4-4------------------- |
|  --4-4-4-4-4-4-4-4---2-2-2-2----3-3-3-3---4-4-4-4-4-4-4-4----2-2-2-2----3-3-3-3- |
|  --3-3-3-3-3-3-3-3---2-2-2-2----4-4-4-4---3-3-3-3-3-3-3-3----2-2-2-2----4-4-4-4- |
|  --4-4-4-4-4-4-4-4---2-2-2-2----4-4-4-4---4-4-4-4-4-4-4-4----2-2-2-2----4-4-4-4- |
|  --4-4-4-4-4-4-4-4---0-0-0-0----2-2-2-2---4-4-4-4-4-4-4-4----0-0-0-0----2-2-2-2- |
|  --2-2-2-2-2-2-2-2----------------------------2-2-2-2-2-2-2-2------------------- |

|  ----------------------------------- |
|  --3-3-3-------3-3-3------3-3-3----- |
|  --4-4-4-------4-4-4------4-4-4--lr- |
|  --4-4-4-------4-4-4------4-4-4--lr- |
|  --2-2-2-------2-2-2------2-2-2----- |
|  ----------------------------------- |

Now there is layered guitars on the last chorus but if u want to play the basics play 
above. There is a wah riff underneath that u can figure out if ur playing with 2 
live blah blah blah blah.

Legend:
Lr-let ring
ho-hammer on
po-pull of
b-bend
x-dead note
h(#)-harmonic(hash means fret no.)
HB-HOLD bend( till you change fret)
f-feedback(by using or amp or high volume)


Neways, I hope the tab is decent, please rate it and if you like Kiwi Rock and Roll or 
got some suggestions then email me on jamesdonaldson@hot-shot.com

cheers
Tap to rate this tab
 
# A B C D E F G H I J K L M N O P Q R S T U V W X Y Z