The Scenic - Halo tab

-------------------------------------------------------------------------------
			     HALO - The Scenic
-------------------------------------------------------------------------------
Tabbed by: undiscoverednew
Email: (private)

Tuning: Standard

My first tab.. I tried hard.

e|-x------x------x------x-----------|
B|-x------x------x------x-----------|
G|-x------x------x------x-----------|
D|-x------x------x------x-----------|
A|-x------x------x------x-----------|
E|-x------x------x------x-----------|
"One......two....three..four.."

Intro:
e|----------------------------------|
B|---7--7--7--7--7--7--6--7---------|
G|----------------------------------| x4
D|----------------------------------|
A|----------------------------------|
E|-7--7--6--6--4--4--6--6-----------|

Verse 1:
e|------------------------------------2--2--2--2--2--2--2--2----|
B|---7--7--7--7--7--7--7--7-------------------------------------|
G|--------------------------------------------------------------|
D|--------------------------------------------------------------| x3
A|--------------------------------------------------------------|
E|-7--7--7--7--7--7--7--7-----------2--2--2--2--2--2--2--2------|
"Livin' in a land of make-believe..."

Pre-Chorus:
e|------------------------------------2--2--2--2--2--2--2--2----|
B|---7--7--7--7--7--7--7--7-------------------------------------|
G|--------------------------------------------------------------|
D|--------------------------------------------------------------|
A|--------------------------------------------------------------|
E|-7--7--7--7--7--7--7--7-----------2--2--2--2--2--2--2--2------|
"I said where'd you go tonight..?"

e|------------------------------------2--2--2--2--6--6--6--7----|
B|---7--7--7--7--7--7--7--7-------------------------------------|
G|--------------------------------------------------------------|
D|--------------------------------------------------------------|
A|--------------------------------------------------------------|
E|-7--7--7--7--7--7--7--7-----------2--2--2--2--4--4--4--4------|
"I said, we can't give up the fight..."

Chorus:
e|----------------------------------|
B|---7--7--7--7--7--7--6--7---------|
G|----------------------------------| x4
D|----------------------------------|
A|----------------------------------|
E|-7--7--6--6--4--4--6--6-----------|
"My little halo, I just wanted you to know..."

Verse 2:
e|------------------------------------2--2--2--2--2--2--2--2----|
B|---7--7--7--7--7--7--7--7-------------------------------------|
G|--------------------------------------------------------------|
D|--------------------------------------------------------------| x2
A|--------------------------------------------------------------|
E|-7--7--7--7--7--7--7--7-----------2--2--2--2--2--2--2--2------|
"You know it hits home..."

Pre-Chorus:
e|------------------------------------2--2--2--2--2--2--2--2----|
B|---7--7--7--7--7--7--7--7-------------------------------------|
G|--------------------------------------------------------------|
D|--------------------------------------------------------------|
A|--------------------------------------------------------------|
E|-7--7--7--7--7--7--7--7-----------2--2--2--2--2--2--2--2------|
"I said where'd you go tonight..?"

e|------------------------------------2--2--2--2--6--6--6--7----|
B|---7--7--7--7--7--7--7--7-------------------------------------|
G|--------------------------------------------------------------|
D|--------------------------------------------------------------|
A|--------------------------------------------------------------|
E|-7--7--7--7--7--7--7--7-----------2--2--2--2--4--4--4--4------|
"I said, we can't give up the fight..."

Chorus:
e|----------------------------------|
B|---7--7--7--7--7--7--6--7---------|
G|----------------------------------| x6
D|----------------------------------|
A|----------------------------------|
E|-7--7--6--6--4--4--6--6-----------|
"My little halo, I just wanted you to know..."

Bridge: (strumming is the closest I could get)
e|---6----6--6---6----6--6----------|
B|---6----6--6---6----6--6----------|
G|---8----8--8---8----8--8----------|
D|---8----8--8---8----8--8----------|
A|---x----x--x---x----x--x----------|
E|---x----x--x---x----x--x----------|
"I wanna feel that.."

e|----------------------------------|
B|---7--7--7--7--7--7--6--7---------|
G|----------------------------------| x2
D|----------------------------------|
A|----------------------------------|
E|-7--7--6--6--4--4--6--6-----------|
"When everybody's got the same..."

Chorus:
e|----------------------------------|
B|---7--7--7--7--7--7--6--7---------|
G|----------------------------------| x4
D|----------------------------------|
A|----------------------------------|
E|-7--7--6--6--4--4--6--6-----------|

End:
e|----------------------------------------------|
B|----------------------------------------------|
G|-----6-6-----------------6-6------------------|
D|--6h8-8-8-6-6-8-6-4---6h8-8-8-6-6-8-6---------|
A|----------------------------------------------|
E|----------------------------------------------|

e|------------------------------------------|
B|------------------------------------------|
G|-----6-6----------------------------------|
D|--6h8-8-8-6-6-8-6-4---1-4-6-8p6-4-4-6-4---|
A|--------------------------------------4---|
E|------------------------------------------|

************************************

| /   slide up
| \   slide down
| h   hammer-on
| p   pull-off
| ~   vibrato
| +   harmonic
| x   Mute note
| b   Bend
| pb  Pre-bend
| br  Bend release
| pbr Pre-bend release
| brb Bend release bend

************************************
Tap to rate this tab
 
# A B C D E F G H I J K L M N O P Q R S T U V W X Y Z