Guitaretab - guitar tabs
Song name
# A B C D E F G H I J K L M N O P Q R S T U V W X Y Z

The Script - Im Yours tab

Artist: The Script
Song: Iím Yours

Ok, right off this is my first tab so I know there are errors and I welcome any corrections!

Iíve only submitted this because I got another tab for this song, tried to play along
the record and realized it was completely the wrong key!

So, although Iíve left off some of the more fiddly bits (like the fill on the verse),
is the gist of it and Iím pretty damn sure most of itís right (play along and see!) Ė the
Iím not sure of Iíve put in bold so please email me if you know the correct notes! 
frabjous_day@hotmail.com


Standard Tuning (CAP 5)

INTRO
----------------------------------------------------------------------------|
---1---0-------3-----1---0---------3-----1---0-------3----------3--3--1-----|
--------------0-----------------0h2-----------------0-0--------0--0---0-----|
--3---3---3--0------3---3---3--0--------3---3---3--0---0------2--2----2-----|
-0---0---0--2------0---0---0--2--------0---0---0--2------0h2h3--------3-----|
----------------------------------------------------------------------------|


VERSE
----------------------------------------------------------------------------|
---1---0-------3-----1---0--------3------1---0-------3------3--3--1---------|
--------------0-----------------0-------------------0------0--0---0---------|
--3---3---3--0------3---3---3--0--------3---3---3--0------2--2----2---------|
-0---0---0--2------0---0---0--2--------0---0---0--2------3--------3---------|
----------------------------------------------------------------------------|

----------------------------------------------------------------------------|
---1---0-------3-----1---0--------3------1---0-------3------3--3---3---3----|
--------------0-----------------0-------------------0------0--0---0---0-----|
--3---3---3--0------3---3---3--0--------3---3---3--0------2--2---2---2------|
-0---0---0--2------0---0---0--2--------0---0---0--2------3------3---2-------|
----------------------------------------------------------------------------|


CHORUS
----------------------------------------------------------------------------|
---1---0-------3-----1---0--------3------1---0-------3------3--3---3---3----|
--------------0-----------------0-------------------0------0--0---0---0-----|
--3---3---3--0------3---3---3--0--------3---3---3--0------2--2---2---2------|
-0---0---0--2------0---0---0--2--------0---0---0--2------3------3---2-------|
----------------------------------------------------------------------------|
[ Tab from: http://www.guitaretab.com/t/the-script/190518.html ]
----------------------------------------------------------------------------|
---1---0-------3-----1---0--------3------1---0-------3------3--3---3---3----|
--------------0-----------------0-------------------0------0--0---0---0-----|
--3---3---3--0------3---3---3--0--------3---3---3--0------2--2---2---2------|
-0---0---0--2------0---0---0--2--------0---0---0--2------3------3---2-------|
----------------------------------------------------------------------------|


FILL
----------------------------------------------------------------------------|
----1---0------0---1-------1--0-----0--1--------1--0------0--1--------------|
-----------0--------------------0---------------------0-------------2-4-1-2-|
--2---2---2--2---2---2---2--2--2--2--2---2----2--2--2---2--2---2------------|
-0---0---0--0---0-----------------------------------------------------------|
------------------------3--3--3--3--3--------1--1--1---1--1-----------------|

VERSE Ė CHORUS

SOLO (verse is played in background by 2nd guitar)
--------------------------------------------------------------------------|
--------------------------------------------------------------------------|
-2-2-4-5-5ó--5---5-5-4-2-2-4-5---2-4-5-4-7-5--ó5p4p2-------0h2------------|
----------------------------------------------------2p0ó2h3---------------|
-------------------------------------------------------2------------------|
--------------------------------------------------------------------------|

--0--0ó(x8)---------------------------------------------------------------|
----5----------3ó(x8)---3ó(x8)--------------------------------------------|
---5----------5--------5-------------2--4-5-4-5-7-7>9-9-9-----------------|
-------------2--------3--------------2------------------------------------|
-------------------------------------2------------------------------------|
--------------------------------------------------------------------------|


FINAL CHORUS (this is played over the top of the 2nd guitar/normal verse)
---------------------------------------------------------x----------------|
----6-6-5-3----6-6-5-3----6-6-5-3------------------------1----------------|
----------------------------------------0h2p0------------0----------------|
-----------------------------------------------0h2p0-----2----------------|
-----------------------------------------------------3---3----------------|
---------------------------------------------------------x----------------|

END

VERSE 1
You touch these tired eyes of mine,
And map my face out line by line,
And somehow growing old feels fine.

I listen close for Iím not smart.
You wrap your thoughts in works of art,
And theyíre hanging on the walls of my heart.

CHORUS
I may not have the softest touch.
I may not say the words as such.
And though I may not look like much,
Iím Yours.

And though my edges may be rough,
I never feel Iím quite enough.
It may not seem like very much,
But Iím Yours.

VERSE 2
You healed these scars over time.
Embraced my soul, you loved my mind.
Youíre the only angel in my life.

The day news came my best friend died,
My knees went weak and you saw me cry,
Say Iím still the soldier in your eyes.

CHORUS

SOLO

FINAL CHORUS
I may not have the softest touch.
I may not say the words as such.
I know I donít fit in that much,
But Iím Yours.
Related for Im Yours tab