Song name
# A B C D E F G H I J K L M N O P Q R S T U V W X Y Z

The Script - If You Ever Come Back tab

Best as i can figure it out, rate and comment :]

E|-------------------------------------12-----12------10-----10---------|
B|----10------10------8-----8-------------0------0-------0------0---8~--|
G|-------0-------0------0-----0---7-------------------------------------|
D|-10------10------10-----9-----9----9------9-------7------7------7-----|
A|----------------------------------------------------------------------|
E|----------------------------------------------------------------------|

E|---10-----10-----7-----7-----------10-----10-----7-----7--------------|
B|------8------8-----8-----8------------8------8-----8-----8------------|
G|-----------------------------7~------------------------------7~-------|
D|-7------7------5-----5-----5-----7------7------5-----5-----5----------|
A|----------------------------------------------------------------------|
E|----------------------------------------------------------------------|

.. and you get the idea :] 

rate and comment please!

RJ_Rock

Tap to rate this tab
 
# A B C D E F G H I J K L M N O P Q R S T U V W X Y Z