Song name
# A B C D E F G H I J K L M N O P Q R S T U V W X Y Z

The Seatbelts - Waltz For Zizi tab

 This is all Acoustic in standard tune
 If you want aney more songs form Cowboy Bebop or Ghost in The Shell PM me
 Ill try to tab it or find it for ya

 -----------2s4------2---0----------------------|
 ----------------4--(0)-------2---0----------0--|
 -4--4--4------------2--------0---1------1---1--|
 -------2------------2-------(2)-(2)----2---(2)-|
 -------2-----------(0)----------------2--------|
 ------(0)--------------------------------------|

 0--2-s4--4--5--4--2---------5s1-1--4--2----------------------------|
 ---------6--------2---2--2---------3------3--2---1---0--2-s4--4--2-|
 ---------4--------2---1--1---------4---------2---2---2-----------2-|
 ----------------------3--3-------------------2---2---1-----------1-|
 ---------------------------------------------0---0-----------------|
 -------------------------------------------------------------------|

 ----------------2----------2s4------2---0--------------------|
 -0--2-2s4-s2-2-----------------3s4--0-------2---0---------0--|
 -1-----------2---------4------------2-------0---1-----1---1--|
 -2-----------1---------2------------2------(2)-(2)----2------|(2)
 -----------------------2-----------(0)--------------2--------|
 ----------------------(0)------------------------------------|

 -0--2-s4--4--5--4--2--------5s1-1s4--4--2-s---2--0----|
 ----------6--------2--2--2-----------1-----4--0-----2-|
 ----------4--------2--1--1-----------2--------1-------|
 ----------------------3--3-----------2-------(2)------|
 ------------------------------------------------------|
 ------------------------------------------------------|

 -----------0--2s4--4---4--4-------------------|
 -5--2--3-----------1------2-------------------|
 -6-----x--------------------------------------|
 -5--------------------------------------------|
 -X--------------------------------------------|
 -3--------------------------------------------|

 -------------|
 -2-3-5-7--9--|
 ---4-----10--|
 ---3-----11--|
 ---5---------|
 -------------|
Tap to rate this tab
# A B C D E F G H I J K L M N O P Q R S T U V W X Y Z