Song name
# A B C D E F G H I J K L M N O P Q R S T U V W X Y Z

The Secret Samurai - The Song Remains Insane tab

http://secretsamurai.org/

This is my first guitar tab, so I don't know the correct symbols:

* ~ means sustain with the whammy bar
* notes in parenthesis mean tap real fast* 

Timing is probably off a bit too, I tried to make it somewhat accurate.  Standard 
tuning, reverb and a little delay for effects.  I never finished this tab, if I 
ever do I will repost the full song.  Corrections welcome, write to 89vision@comcast.net

Music by Secret Samurai
Transcribed by Duffman

Surf

0:04-0:11                                +
|-------2-0-----------------------------|----2~~~-----0-----------2~~~--|
|-----------3-2-3-2-0-2-0---------------|----3~~~-0-3---2---0-2---3~~~--|
|-------------------------2-0-2-4-2-0---|----4~~~---------2-------4~~~--|
|-------------------------------------4-|-------------------------------|
|---------------------------------------|-2---------------------2-------|
|---------------------------------------|-------------------------------|
0:11-0:16
|--------------2~~~-----0--------2~~~-|
|--------------3~~~-0-3--2-0-2---3~~~-|
|--------------4~~~-------2------4~~~-|
|-------------------------------------|
|---0-2-4-2-0-2----------------2------|
|-2-----------------------------------|
0:16-0:26 
|----0---------------------------------|--------------------------------|
|-0-3--2-2--------------------3/7~777--|------7/14~141414------3/7~777--|
|------2-2--------------------3/7~777--|------7/14~141414------3/7~777--|
|------2-2--000000000000000000000000000|00000000000000000000000000000000|
|------0-0-----------------------------|--------------------------------|
|--------------------------------------|--------------------------------|

0:26-0:33
|------------------------|-2~~~-----0-----------2~~~--|
|-----------------2-2----|-3~~~-0-3---2---0-2---3~~~--|
|-----------------2-2----|-4~~~---------2-------4~~~--|
|0000000000000000-2-2----|----------------------------|
|-----------------0-0--2-|--------------------2-------|
|------------------------|----------------------------|

0:33-0:41                                ++
|---------------2~~~-----0--------2~~~222-------3~~~--|
|---------------3~~~-0-3--2-0-2---3~~~3332-2----3~~~--|
|---------------4~~~-------2------4~~~4442-2----0~~~--|
|----------------------------------------2-2----0~~~--|
|---0-2-4-2-0-2-----------------2--------0-0--2-2~~~--|
|-2-------------------------------------------3-3~~~--|

0:41-0:54 
|-----------2~~~---------------3~~~----------2~~~-2220------3~~~----------2~~~-|
|-----------3~~~---------------3~~~----------3~~~-----320---3~~~----------3~~~-|
|-----------4~~~-4442----------0~~~----------4~~~--------20-0~~~----------4~~~-|
|-555420-------------42(020)---0~~~-555420------------------0~~~-555420--------|
|-------402------------------2-2~~~-------402---------------2~~~-------402-----|
|----------------------------3-3~~~-------------------------3~~~---------------|

0:54-1:00
|-----------0000020-000-2222242-222-|
|-----------0000000-000-2222222-222-|
|-----------1111111-111-3333333-333-|
|------245--2222222-222-4444444-444-|
|-22245-----2222222-222-------------|
|---------0-0000000-000-------------|

1:00-1:10
|-----------------7----------------------7-----|
|----------------7-6~~~-----------------7-6~~~-|
|---6~76-976----7----------6~76-976----7-------|
|--7----9---97-9----------7----9---97-9--------|
|-9---------------------9----------------------|
|----------------------------------------------|

1:10-1:16 
|--8--8--8--10~10-8-10--11~11-13-11-(1011810)~8-6-5-|
|-10-10-10--10~-------------------------------------|
|---------------------------------------------------|
|---------------------------------------------------|
|---------------------------------------------------|
|---------------------------------------------------| 

1:16-1:22
|-3----------------------------------------------------|
|--6-4-3333333333/1/3/44444/6/4/3333333333/1-----------|
|-------------------------------------------3/22222222-|
|------------------------------------------------------|
|------------------------------------------------------|
|------------------------------------------------------|

(1:22- 1:33) Repeat 1:00-1:10

1:33-1:44 
|-------------------75---7/129---129--------------------------------------------|
|---------------------757-----107---107------------5-235-3-(232)-232------------|
|-6--6--4---4---44----------------------4---4---44--------------4---4-2-4-5-4-2-|
|-7--7--5---5---55----------------------5---5---55------------------------------|
|-7--7--5---5---55----------------------5---5---55------------------------------|
|-5--5--3---3---33----------------------3---3---33------------------------------|
    v      v      v         v        v ^                                    v         v         v^

1:44-1:55
|--------------75---7/129---129----0--0--020-2--2--2444442-|
|----------------757-----107---107-0--0--000-2--2--2222222-|
|-4---4---44-----------------------1--1--111-3--3--3333333-|
|-5---5---55-----------------------2--2--222-4--4--4444444-|
|-5---5---55-----------------------2--2--222---------------|
|-3---3---33-----------------------------------------------|
  v   v   v^


1:55-2:05
|----------------------9~--9~-----------6~~~-|
|----------------------7~--7~-------9---6~~~-|
|------10-11-10--------7~--7~-11--11-11-4~~~-|
|-9-12---------12-9-12----------12-----------|
|--------------------------------------------|
|--------------------------------------------|
(repeat)

2:05-2:16
|--------------------------7---|   |--------------7-7-7-|
|-6-7-(676)----------------7---|   |-6-7-(676)----7-7-7-|
|-----------9-7-6-7-6------7---|   |----------9-7-------|
|--------------------9-7-9-----|   |--------------------|
|------------------------------|   |--------------------|
|------------------------------|   |--------------------|
(repeat x3)                                     (4th time played)


2:16-2:48 repeat ++ to ++ at begining

2:48-2:59
|------------------------------------------------------|
|------------------------------------------------------|
|-------------4-(242)----------------------------------|
|-4-4-2-4-2-4--------4-2-0-2--4-4-2-4-2-4--------------|
|-2-2-0-2-0-2-----------------2-2-0-2-0-2-----0-2-3454-|
|-----------------------------------------0-2----------|

|-----------------------------------------2-|
|-----------------------------------------3-|
|-------------4-(242)---------------------4-|
|-4-4-2-4-2-4--------4-2-0-2--4-4-2-4-2-4-4-|
|-2-2-0-2-0-2-----------------2-2-0-2-0-2---|
|-------------------------------------------|

(incomplete)

http://secretsamurai.org/
Tap to rate this tab
 
# A B C D E F G H I J K L M N O P Q R S T U V W X Y Z