Song name
# A B C D E F G H I J K L M N O P Q R S T U V W X Y Z

The Secret Stars - Shoe In tab

Help us improve GuitareTab! Take a short survey!
Intro/Verse

e-----------------------------------------------------------------------|
B-----------------------------------------------------------------------|
G-----9---8-8-8-9------9--8-8-8-9------9---8-8-8-9------9---8-8-8-9-----|
D-----9---9-9-9-9------9--9-9-9-9------9---9-9-9-9------9---9-9-9-9-----|
A-7-7-7-7-7-7-7-7------------------0-0-0-0-0-0-0-0--0-0-0-0-0-0-0-0-----|
E------------------7-7--7-----------------------------------------------|


Chorus
e-----------------------------------------------------------------------|
B-----------------------------------------------------------------------|
G-9-9-9-9-9-9-9-9--9-9-9-9-9-9-9-9--9-9-9-9-9-9-9-9--9-9-9-9-9-9-9-9----|
D-9-9-9-9-9-9-9-9--9-9-9-9-9-9-9-9--9-9-9-9-9-9-9-9--9-9-9-9-9-9-9-9----|
A-x-x-x-x-x-x-x-x--x-x-x-x-x-x-x-x--x-x-x-x-x-x-x-x--0-0-0-0-0-0-0-0----|
E-7-7-7-7-7-7-7-7--9-9-9-9-9-9-9-9--7-7-7-7-7-7-7-7---------------------|

enjoy. any questions: dcfc13@cox.net
Related for Shoe In tab