Song name
# A B C D E F G H I J K L M N O P Q R S T U V W X Y Z

The Shore - Waiting For The Sun chords

Highlighted       Show chord diagrams
                                  The Shore - Waiting for the sun


This is my first tab i think its right, sounds spot on when you play it with
the record.

The start has a little riff which is:

E |-------------------------------|
B |-------------------------------|
G |-9---11-6---4-9----------------|
D |-------------------------------|
A |-------------------------------|
E |-------------------------------|

The chords for the intro/ verse are:

       E*        C#m

E |----7----------4---------------|
B |----9----------5---------------|
G |----8----------6---------------|
D |----9----------6---------------|
A |----7----------4---------------|
E |----x----------x---------------|


VERSE

E*
Summer's changing baby,
C#m                       E*
All the light is changing too,
      C#m
Canít you see?
E*                        C#m                 E*
Feels like all the colours of emotion shine on through,
        C#m
Even if we try,

PRE-CHORUS


        F#m
E |-----2-------|
B |-----2-------|
G |-----2-------|
D |-----4-------|
A |-----4-------|
E |-----2-------|


                F#m                       B
Ooh, it gets me high drifting through the light,
                   F#m
Endless miles Iíll drive,
                  B
Trying to make it right.


CHORUS

                  A   E               B
I keep on holding on, waiting for the sun,
                  A   E               B
I keep on holding on, waiting for the light,
                  A   E               B
I keep on holding on, waiting for the sun,
                  A   E         B
I keep on holding on, yeah, yeah, yeah,
E*
ooh, ooh.

Then just repeat, you should get the hang of it, its only got 3 chordal parts.

Cheers,
Rhys.
Tap to rate this tab
 
# A B C D E F G H I J K L M N O P Q R S T U V W X Y Z