Song name
# A B C D E F G H I J K L M N O P Q R S T U V W X Y Z

The Shouting Matches - Heaven Knows tab

----------------------------------------------------------------
                         HEAVEN KNOWS - The Shouting Matches
----------------------------------------------------------------
Tabbed by: Bowen Jones
E-mail: jonesb93@gmail.com

Tuning: Drop D

Hereís the gist of the intro riff, just throw in some hammer-ons and youíll be fine.

E | -------------------------------------------------------------------------|
B | -------------------------------------------------------------------------|
G | ----10----------------------10-------------------10----------------------|
D | -------------------------------------------------------------------------|
A | -------------------------------------------------------------------------|
D | --0-----10-10-10-10-12-0--0-----10-10-10h12--0---------------------------|



Then this part plays beneath the mini-solos

E | -------------------------------------------------------------------------|
B | -------------------------------------------------------------------------|
G | -------------------------------------------------------------------------|
D | --0--x-0--x-3s0----------------------------------------------------------|
A | --0--x-0--x-3s0----------------------------------------------------------|
D | --0--x-0--x-3s0----------------------------------------------------------|

Mini-solo

E | --8b~~/10b~~--5p3------8b~~/10b~~----------------------------------------|
B | ------------------6-3----------------------------------------------------|
G | -------------------------------------------------------------------------|
D | -------------------------------------------------------------------------|
A | -------------------------------------------------------------------------|
D | -------------------------------------------------------------------------|



Then another mini-solo

E | --8b~~/10b~~--5p3------8b~~/10b~~----------------------------------------|
B | ------------------6-3----------------------------------------------------|
G | -------------------------------------------------------------------------|
D | ----------------------------------7p5------------------------------------|
A | --------------------------------------8-5--------------------------------|
D | -------------------------------------------------------------------------|




 Then back to a mini-solo

E | --8b~~/10b~~-----------8b~~/10b~~----------------------------------------|
B | -------------------------------------------------------------------------|
G | --------------5\3--2-----------------------------------------------------|
D | -------------------------------------------------------------------------|
A | -------------------------------------------------------------------------|
D | -------------------------------------------------------------------------|

And thatís all I got, I couldnít figure out the outro.


Thanks!



************************************

| /   slide up
| \   slide down
| h   hammer-on
| p   pull-off
| ~   vibrato
| +   harmonic
| x   Mute note
| b   Bend
| pb  Pre-bend
| br  Bend release
| pbr Pre-bend release
| brb Bend release bend

************************************
Tap to rate this tab
# A B C D E F G H I J K L M N O P Q R S T U V W X Y Z