Song name
# A B C D E F G H I J K L M N O P Q R S T U V W X Y Z

The Skies Of America - Shine tab

Help us improve GuitareTab! Take a short survey!
http://www.theskiesofamerica.com/

--------------------------------------
     SHINE - The Skies of America
--------------------------------------
Tabbed by: ZJ07

Note: This is my first tab. I think I may have made the intro a bit harder 
than it should be, but the notes sound right to me. It may be easier to play 
on a different part of the neck. Also the "x" in the intro is just when I
lightly pick the string to keep time easier, it should be silent.

Tuning: Standard
Key of: B

Intro:
1 Measure of Drums,

 E. Guitar
   B    E           B       E
e|----------------|-------------------|
B|----0---------0-|---0-------------0-|
G|------------x---|---------------x---|
D|------1h2-4-----|------4--1h2-4-----|
A|-2--------------|-2-----------------|
E|----------------|-------------------|

 (Acoustic guitar enters in background)
   B       E          B        E
e|-------------------|-------------------|
B|------0----------0-|------0----------4-|
G|---------------x---|---------------x---|
D|---4-----1h2-4-----|---4-----1h2-4-----|
A|-2-----------------|-2-----------------|
E|-------------------|-------------------|

Verse 1:
   B       E           B       E
e|-------------------|-------------------|
B|------0----------0-|------0----------4-|
G|---------------x---|---------------x---|
D|---4-----1h2-4-----|---4-----1h2-4-----| x3
A|-2-----------------|-2-----------------|
E|-------------------|-------------------|

   B       E           C#
e|-------------------|-----------------|
B|------0----------0-|-----------------|
G|---------------x---|---4---6---4-----|
D|---4-----1h2-4-----|-----6-------6---|
A|-2-----------------|-4-------4-----4-|
E|-------------------|-----------------|

   B                 G#m     F#
e|-----------------|-----------------|
B|---------4-------|-----------------|
G|---4-------4-----|---4-------3-----|
D|-----4-------4---|-----6-------4---|
A|-2-----2-------2-|-------6-------4-|
E|-----------------|-4-------2-------|

   B                 G#m   F#
e|-----------------|-----------------|
B|---------4-------|-----------------|
G|---4-------4-----|---4-----3~--x-x-|
D|-----4-------4---|-----6---4~--x-x-|
A|-2-----2-------2-|-------4-----x-x-|
E|-----------------|-4---------------|

Chorus:
   E           B
e|-------------------------|
B|-------------------------|
G|-9---9--9-9--------------|
D|-9---9--9-9--9-9---9-9-9-| x3
A|-7---7--7-7--9-9---9-9-9-|
E|-------------7-7---7-7-7-|

   C#
e|-----------------|
B|-----------------|
G|-------6---------|
D|---4-------4-3---|
A|-4---4---4-----4-|
E|-----------------|

 (Repeat Chorus)
   E                     B
e|---------------------------|
B|---------------------------|
G|-9---9--9-9--9-9---9-9-----|
D|-9---9--9-9--9-9---9-9-9---| 
A|-7---7--7-7--7-7---7-7-9---|
E|-----------------------7---|

Any advice? Let me know in the comments.
Thanks.
Related for Shine tab