Song name
# A B C D E F G H I J K L M N O P Q R S T U V W X Y Z

The Skints - Lay You Down tab

Lay You Down
by The Skints

Ive just put the chords down, no timings really.
its all played in ska upstrokes

Intro/Verse:
    C       G
|---3---3---3---3---|
|---5---5---3---3---|
|---5---5---4---4---|
|---5---5---5---5---|
|---3---3---5---5---|
|-----------3---3---|

Pre-Chorus:
    F       G       C       Am
|---1---1---3---3---3---3---5---5---|
|---1---1---3---3---5---5---5---5---|
|---2---2---4---4---5---5---5---5---|
|---3---3---5---5---5---5---7---7---|
|---3---3---5---5---3---3---7---7---|
|---1---1---3---3-----------5---5---|
    F       G
|---1---1---3----------|
|---1---1---3----------|
|---2---2---4----------|
|---3---3---5----------|
|---3---3---5----------|
|---1---1---3----------|

Chorus:
    C       Am      F       G
|---3---3---5---5---1---1---3---3---|
|---5---5---5---5---1---1---3---3---|
|---5---5---5---5---2---2---4---4---|
|---5---5---7---7---3---3---5---5---|
|---3---3---7---7---3---3---5---5---|
|-----------5---5---1---1---3---3---|

Thats it :)
@dubsweattears
Tap to rate this tab
# A B C D E F G H I J K L M N O P Q R S T U V W X Y Z