Song name
# A B C D E F G H I J K L M N O P Q R S T U V W X Y Z

The Sleeping - Dont Hold Back tab

-------------------------------------------------------------------------------
                             Don't Hold Back - The Sleeping
-------------------------------------------------------------------------------
Tabbed by: SorryImAwesome.
Email: sorryimawesome@hotmail.com

Tuning: half-step down (eb, Bb, Gb, Db, Ab, Eb)

INTRO:
eb|-----------------------------------------------------------|
Bb|-----------------------------------------------------------|
Gb|-----------------------------------------------------------|
Db|-5h7-5h7-5h7p5h7--5h7-5h7-5h7p5h7--5h7-10-9-7--5h7-10-9-7--|
Ab|-----------------------------------------------------------|
Eb|-----------------------------------------------------------|

eb|----------------------------------------------------------------------------|
Bb|------------------------------------------------------------8h10-8h10-------|
Gb|-------------------------------------------7h9-7h9-7h9p7h9------------------|
Db|-7h10-7h10-7h10p7h10--7h10-7h10-7h10p7h10----------------------------10-9\--|
Ab|----------------------------------------------------------------------------|
Eb|----------------------------------------------------------------------------|

eb|-----------------------------------------------------------|
Bb|-----------------------------------------------------------|
Gb|-----------------------------------------------------------|
Db|-5h7-5h7-5h7p5h7--5h7-5h7-5h7p5h7--5h7-10-9-7--5h7-10-9-7--|
Ab|-----------------------------------------------------------|
Eb|-----------------------------------------------------------|

eb|-----------------------------------------------------------------------|
Bb|------------------------------------------------------------8h10-8h10~-|
Gb|-------------------------------------------7h9-7h9-7h9p7h9-------------|
Db|-7h10-7h10-7h10p7h10--7h10-7h10-7h10p7h10------------------------------|
Ab|-----------------------------------------------------------------------|
Eb|-----------------------------------------------------------------------|

VERSE:
eb|-8-----8-----8---------------------------------|
Bb|-----------------8-----8-----8---0-----0-----0-|
Gb|---5-----5---------5-----5---------5-----5-----|
Db|-----7-----7---7-----7-----7---7-----7-----7---|
Ab|-----------------------------------------------|
Eb|-----------------------------------------------|

eb|-8-----8-----8-------------------|
Bb|-----------------8-----8-----8---|
Gb|---5-----5---------5-----5-------|
Db|-----7-----7---7-----7-----7---7-|
Ab|---------------------------------|
Eb|---------------------------------|

eb|---------------------------------------------------------|
Bb|-------------------------------------------0-----0-----0-|
Gb|-----7------9~-----7------9------------------5-----5-----|
Db|-7h9---9/10----7h9---9/10---10\9~-7\5----------7-----7---|
Ab|---------------------------------------------------------|
Eb|---------------------------------------------------------|

eb|-8-----8-----8---------------------------------|
Bb|-----------------8-----8-----8---0-----0-----0-|
Gb|---5-----5---------5-----5---------5-----5-----|
Db|-----7-----7---7-----7-----7---7-----7-----7---|
Ab|-----------------------------------------------|
Eb|-----------------------------------------------|

eb|-8-----8-----8-------------------|
Bb|-----------------8-----8-----8---|
Gb|---5-----5---------5-----5-------|
Db|-----7-----7---7-----7-----7---7-|
Ab|---------------------------------|
Eb|---------------------------------|

eb|------------------------------------------------------------|
Bb|----------------------------------------------0-----0-----0-|
Gb|-----7------9~----------------------------------5-----5-----|
Db|-7h9---9/10---5-7-7-5h7p5-------------------------7-----7---|
Ab|--------------------------5~-5-7-5-3-5-3--------------------|
Eb|------------------------------------------5-3---------------|


eb|-8-----8-----8--------------------------------0~-|
Bb|-----------------8-----8-----8---0-----0------0~-|
Gb|---5-----5---------5-----5---------5-----5----5~-|
Db|-----7-----7---7-----7-----7---7-----7-----7--7~-|
Ab|-------------------------------------------------|
Eb|-------------------------------------------------|


eb|-8-----8-----8-------------------|
Bb|-----------------8-----8-----8---|
Gb|---5-----5---------5-----5-------|
Db|-----7-----7---7-----7-----7---7-|
Ab|---------------------------------|
Eb|---------------------------------| 2x

eb|------------------------------|
Bb|-------------------------10---|
Gb|-----7------9------7----------|
Db|-7h9---9/10---10\9---9p7----7-|
Ab|------------------------------|
Eb|------------------------------|

CHORUS:
eb|-0~0~0~0~-----------------------------------------------------------|
Bb|-1~1~1~1~-----------------------------------------------------------|
Gb|-2~2~2~2~---------7-7/9\7~--7/9\7~--7-7\5-7/9-9---------------------|
Db|-2~2~2~2~--xxxxx--x-x-x-x---x-x-x---x-x-x-x-x-x---------------------|
Ab|-0~0~0~0~--xxxxx--5-5/7\5~--5/7\5~--5-5\3-5/7-7---------------------|
Eb|-x-x-x-x---xxxxx----------------------------------------------------|

eb|--------------------------5-5-5-3--5-3------------------------------|
Bb|--------------------------0-0-0-0--0-0------------------------------|
Gb|--------------------------0-0-0-0--0-0------------------------------|
Db|-3-3-3-3-3-3-3-3----5~----------------------------------------------|
Ab|-3-3-3-3-3-3-3-3----3~----------------------------------------------|
Eb|-1-1-1-1-1-1-1-1----3~----------------------------------------------|

eb|-0~0~0~0~-----------------------------------------------------------|
Bb|-1~1~1~1~-----------------------------------------------------------|
Gb|-2~2~2~2~---------7-7/9\7~--7/9\7~--7-7\5-7/9-9---------------------|
Db|-2~2~2~2~--xxxxx--x-x-x-x---x-x-x---x-x-x-x-x-x---------------------|
Ab|-0~0~0~0~--xxxxx--5-5/7\5~--5/7\5~--5-5\3-5/7-7---------------------|
Eb|-x-x-x-x---xxxxx----------------------------------------------------|

eb|--------------------------5-5-5-3--5-3------------------------------|
Bb|--------------------------0-0-0-0--0-0------------------------------|
Gb|--------------------------0-0-0-0--0-0------------------------------|
Db|-3-3-3-3-3-3-3-3----5~----------------------------------------------|
Ab|-3-3-3-3-3-3-3-3----3~----------------------------------------------|
Eb|-1-1-1-1-1-1-1-1----3~----------------------------------------------|

post-CHORUS:
eb|-----------------------------------------------------------|
Bb|-----------------------------------------------------------|
Gb|-----------------------------------------------------------|
Db|-5h7-5h7-5h7p5h7--5h7-5h7-5h7p5h7--5h7-10-9-7--5h7-10-9-7--|
Ab|-----------------------------------------------------------|
Eb|-----------------------------------------------------------|

eb|-----------------------------------------------------------------------|
Bb|------------------------------------------------------------8h10-8h10~-|
Gb|-------------------------------------------7h9-7h9-7h9p7h9-------------|
Db|-7h10-7h10-7h10p7h10--7h10-7h10-7h10p7h10------------------------------|
Ab|-----------------------------------------------------------------------|
Eb|-----------------------------------------------------------------------|

VERSE 2:
eb|-8-----8-----8---------------------------------|
Bb|-----------------8-----8-----8---0-----0-----0-|
Gb|---5-----5---------5-----5---------5-----5-----|
Db|-----7-----7---7-----7-----7---7-----7-----7---|
Ab|-----------------------------------------------|
Eb|-----------------------------------------------|

eb|-8-----8-----8-------------------|
Bb|-----------------8-----8-----8---|
Gb|---5-----5---------5-----5-------|
Db|-----7-----7---7-----7-----7---7-|
Ab|---------------------------------|
Eb|---------------------------------|

eb|-----------------------------------------------------------|
Bb|---------------------------------------------0-----0-----0-|
Gb|-----7------9~---------------------------------5-----5-----|
Db|-7h9---9/10----5-7-7~-5-9-9~---7-9---------------7-----7---|
Ab|-----------------------------------------------------------|
Eb|-----------------------------------------------------------|

eb|-8-----8-----8--------------------------------0~-----------|
Bb|-----------------8-----8-----8---0-----0------0~-----------|
Gb|---5-----5---------5-----5---------5-----5----5~-----------|
Db|-----7-----7---7-----7-----7---7-----7-----7--7~-----------|
Ab|-----------------------------------------------------------|
Eb|-----------------------------------------------------------|


eb|-8-----8-----8-------------------|
Bb|-----------------8-----8-----8---|
Gb|---5-----5---------5-----5-------|
Db|-----7-----7---7-----7-----7---7-|
Ab|---------------------------------|
Eb|---------------------------------| 2x

eb|---------------------------------------|
Bb|-------------------------10------------|
Gb|-----7------9------7-------------------|
Db|-7h9---9/10---10\9---9p7----7----------|
Ab|---------------------------------------|
Eb|---------------------------------------|

CHORUS:
eb|-0~0~0~0~-----------------------------------------------------------|
Bb|-1~1~1~1~-----------------------------------------------------------|
Gb|-2~2~2~2~---------7-7/9\7~--7/9\7~--7-7\5-7/9-9---------------------|
Db|-2~2~2~2~--xxxxx--x-x-x-x---x-x-x---x-x-x-x-x-x---------------------|
Ab|-0~0~0~0~--xxxxx--5-5/7\5~--5/7\5~--5-5\3-5/7-7---------------------|
Eb|-x-x-x-x---xxxxx----------------------------------------------------|

eb|--------------------------5-5-5-3--5-3------------------------------|
Bb|--------------------------0-0-0-0--0-0------------------------------|
Gb|--------------------------0-0-0-0--0-0------------------------------|
Db|-3-3-3-3-3-3-3-3----5~----------------------------------------------|
Ab|-3-3-3-3-3-3-3-3----3~----------------------------------------------|
Eb|-1-1-1-1-1-1-1-1----3~----------------------------------------------|

eb|-0~0~0~0~-----------------------------------------------------------|
Bb|-1~1~1~1~-----------------------------------------------------------|
Gb|-2~2~2~2~---------7-7/9\7~--7/9\7~--7-7\5-7/9-9---------------------|
Db|-2~2~2~2~--xxxxx--x-x-x-x---x-x-x---x-x-x-x-x-x---------------------|
Ab|-0~0~0~0~--xxxxx--5-5/7\5~--5/7\5~--5-5\3-5/7-7---------------------|
Eb|-x-x-x-x---xxxxx----------------------------------------------------|

eb|--------------------------------------------------------------------|
Bb|--------------------------------------------------------------------|
Gb|--------------------------------------------------------------------|
Db|-3-3-3-3-3-3-3-3----5~---------------------------xxxxxxxxx----------|
Ab|-3-3-3-3-3-3-3-3----3~---------------------------xxxxxxxxx----------|
Eb|-1-1-1-1-1-1-1-1----3~---------------------------xxxxxxxxx----------|

BREAKDOWN:
eb|--------------------------------------------------------------------|
Bb|--------------------------------------------------------------------|
Gb|--------------------------------------------------------------------|
Db|-5/7--7-5-7---5/7--7-5-7---5/7--7-5-7--xxx--5/7--7-5-7--------------|
Ab|-x-x--x-x-x---x-x--x-x-x---x-x--x-x-x--xxx--x-x--x-x-x--------------|
Eb|-3/5--5-3-5---3/5--5-3-5---3/5--5-3-5--xxx--3/5--5-3-5--------------|

eb|--------------------------------------------------------------------|
Bb|--------------------------------------------------------------------|
Gb|-----------------7~~~-----9-7~~~------9-7---------------------------|
Db|-7~~~-9~~~-10~~~--------7-----------7-----10h12-10h12-10h12\7~~~----|
Ab|--------------------------------------------------------------------|
Eb|--------------------------------------------------------------------|

eb|--------------------------------------------------------------------|
Bb|--------------------------------------------------------------------|
Gb|-----------------------------------12121212121212121212121212121212-|
Db|-7777777777777777-9999999999999999-----------------x-x-x-x-x-x-x-x--|
Ab|---------------------------------------------------1010101010101010-|
Eb|--------------------------------------------------------------------|
PM: **************** **************** ****************

CHORUS:
eb|-0~0~0~0~-----------------------------------------------------------|
Bb|-1~1~1~1~-----------------------------------------------------------|
Gb|-2~2~2~2~---------7-7/9\7~--7/9\7~--7-7\5-7/9-9---------------------|
Db|-2~2~2~2~--xxxxx--x-x-x-x---x-x-x---x-x-x-x-x-x---------------------|
Ab|-0~0~0~0~--xxxxx--5-5/7\5~--5/7\5~--5-5\3-5/7-7---------------------|
Eb|-x-x-x-x---xxxxx----------------------------------------------------|

eb|--------------------------5-5-5-3--5-3------------------------------|
Bb|--------------------------0-0-0-0--0-0------------------------------|
Gb|--------------------------0-0-0-0--0-0------------------------------|
Db|-3-3-3-3-3-3-3-3----5~----------------------------------------------|
Ab|-3-3-3-3-3-3-3-3----3~----------------------------------------------|
Eb|-1-1-1-1-1-1-1-1----3~----------------------------------------------|

eb|-0~0~0~0~-----------------------------------------------------------|
Bb|-1~1~1~1~-----------------------------------------------------------|
Gb|-2~2~2~2~---------7-7/9\7~--7/9\7~--7-7\5-7/9-9---------------------|
Db|-2~2~2~2~--xxxxx--x-x-x-x---x-x-x---x-x-x-x-x-x---------------------|
Ab|-0~0~0~0~--xxxxx--5-5/7\5~--5/7\5~--5-5\3-5/7-7---------------------|
Eb|-x-x-x-x---xxxxx----------------------------------------------------|

eb|--------------------------5-5-5-3--5-3------------------------------|
Bb|--------------------------0-0-0-0--0-0------------------------------|
Gb|--------------------------0-0-0-0--0-0------------------------------|
Db|-3-3-3-3-3-3-3-3----5~----------------------------------------------|
Ab|-3-3-3-3-3-3-3-3----3~----------------------------------------------|
Eb|-1-1-1-1-1-1-1-1----3~----------------------------------------------|

OUTRO:
eb|--------------------------------------------------------------------|
Bb|--------------------------------------------------------------------|
Gb|--------------------------------------------------------------------|
Db|-5h7-5h7-5h7p5h7--5h7-5h7-5h7p5h7--5h7-10-9-7--5h7-10-9-7-----------|
Ab|--------------------------------------------------------------------|
Eb|--------------------------------------------------------------------|

eb|----------------------------------------------------------------------------|
Bb|------------------------------------------------------------8h10------------|
Gb|-------------------------------------------7h9-7h9-7h9p7h9------------------|
Db|-7h10-7h10-7h10p7h10--7h10-7h10-7h10p7h10------------------------10-9-5~~~~-|
Ab|----------------------------------------------------------------------------|
Eb|----------------------------------------------------------------------------|

************************************
eb|-
Bb|-
Gb|-
Db|-
Ab|-
Eb|-

| /   slide up
| \   slide down
| h   hammer-on
| p   pull-off
| ~   vibrato
| +   harmonic
| x   Mute note
| b   Bend
| pb  Pre-bend
| br  Bend release
| pbr Pre-bend release
| brb Bend release bend

************************************
Tap to rate this tab
# A B C D E F G H I J K L M N O P Q R S T U V W X Y Z