Song name
# A B C D E F G H I J K L M N O P Q R S T U V W X Y Z

The Snake The Cross The Crown - Empires tab

The Snake The Cross The Crown "Empires" 
I borrowed the intro from Marcus A. 
and the Chorus from Middletown I also play this song in Drop D
Props on your great work guys

Intro

e|------------------------------------------------|
B|----------------------------------------6-------|
G|-------------7---7-------------5---5------5-----|
D|--5-7-5--------7---7/10-10-8-7---7---7------7---|
A|--------8-5-------------------------------------|
D|------------------------------------------------|

e|------------------------------------------------|
B|------------------------------------------------|
G|-------------7---7------------2---2---2---3---5-|
D|--5-7-5--------7---7/8-8-7--3---3---3---3---3---|
A|--------8-5-------------------------------------|
D|------------------------------------------------|


Verse 1
 Dm                     F
finally oh this is the morning 
 Dm            C                 F
of six eyes malicious cold dark stares
 Dm                      C         F
one single gentleman is not even watching
 Dm       C           F
maybe... he's not prepared

Chorus 1
 Dm
so this is how
 Dm                 F
oh this is how it comes to end
 Am                                      Bb
a meeting ground between everything and all that's been

Solo

e----------------------------------------------------------------------8/10/8--------------------------------------]
b------------------------------------------------------------------------------10--13--18--18---15---13---12----10-]
g--------------------------------------------------------------------------------------------17---14---12---10----7]
d------5--7--5-----------------2p0---------------------------------------------------------------------------------]
a---------------8--5--3--5--3-------3--3/5--0----------------------------------------------------------------------]
D----------------------------------------------5--5--5--5--7--5--3--0----------------------------------------------]

e--------------------]
b--------------------]
g---7--10--12b--10--7]
d--------------------]
a--------------------]
D--------------------]

Verse 2

  Dm         C               F
sweet child, oh cover your ears please

  Dm        C               F
loudly... does your father fall

  Dm                        C          F
last declarations aren't enough to absolve me from 
     Dm            C       F
the stories of a mother scorned, reborn

  Dm              F
but careful..... son, 
  Dm                    F
your revolution's been won already
   Dm                    F                 C
don't let the trail it leads confine your needs

-
Break Dm
-

Chorus 2

 Dm
so this is how
 Dm                 F
oh this is how it comes to end
 A                                       Bb
a meeting ground between everything and all that's been

 Dm
so save me
 Dm          F
so send me away from here
  Am                                         Bb
our time has come, you can barely live with all your fears



e|--------------------------------------|
B|------------------------------6-------|
G|---7---7-------------5---5------5-----|
D|-----7---7/10-10-8-7---7---7------7---|
A|--------------------------------------|
D|--------------------------------------|

e|----------------------------1---------|
B|----------------------------1---------|
G|-------------7---7----------2---------|
D|--5-7-5--------7---7/8-8-7--3---------|
A|--------8-5---------------------------|
D|--------------------------------------|



Tap to rate this tab
 
# A B C D E F G H I J K L M N O P Q R S T U V W X Y Z