Song name
# A B C D E F G H I J K L M N O P Q R S T U V W X Y Z

The Sore Losers - Beyond Repair tab

Song: Beyond Repair
Artist: The Sore Losers
Album: The Sore Losers
Tabbed By: Jasper Vermandere (Jeevee)

Tuning: standard


VERSE

e  --------|----------------|----------------|
B  --------|----------------|----------------|
G  --------|----------------|----------------|
D  --------|----------------|7-7-2-2-4-------|
A  --------|----------------|7-7-2-2-4-------|
E  -----020|2---------------|5-5-0-0-2----020|

e |----------------|----------------|--------|
B |----------------|----------------|--------|
G |----------------|----------------|--------|
D |----------------|7-7-2-2-4-4-4-4-|44444444|
A |----------------|7-7-2-2-4-4-4-4-|44444444|
E |2---------------|5-5-0-0-2-2-2-2-|22222222|

CHORUS (guitar 1)

A
e |----------------|----------------|   X2 (stop on the last chord second time)
B |----------------|----------------|  
G |----------------|----------------|
D |12//////////////|4///6///7///9///|
A |12//////////////|4///6///7///9///|
E |10//////////////|2///4///5///7///|

B
e |----------------|----------------|   X2 (stop the second time on the last chord)
B |----------------|----------------|  
G |----------------|----------------|       
D |9--2--4/////////|9--2--4/////////|
A |9--2--4/////////|9--2--4/////////|
E |7--0--2/////////|7--0--2/////////|

CHORUS (guitar 2)


A
e |----------------|----------------|   X2 (stop on the last chord second time)
B |----------------|----------------|  
G |----------------|----------------|
D |12--------------|4---6---7---9---|
A |12--------------|4---6---7---9---|
E |10--------------|2---4---5---7---|

B
e |----------------|----------------|   X2 (rhythm is the same as the chords of guitar 1)
B |----------------|----------------|  	  (stop the second time on the last chord)
G |11--13--14--1414|14--13--11--1111|
D |----------------|----------------|
A |----------------|----------------|
E |----------------|----------------|


VERSE

e  --------|----------------|----------------|
B  --------|----------------|----------------|
G  --------|----------------|----------------|
D  --------|----------------|7-7-2-2-4-------|
A  --------|----------------|7-7-2-2-4-------|
E  -----020|2---------------|5-5-0-0-2----020|

e |----------------|----------------|--------|
B |----------------|----------------|--------|
G |----------------|----------------|--------|
D |----------------|7-7-2-2-4-4-4-4-|44444444|
A |----------------|7-7-2-2-4-4-4-4-|44444444|
E |2---------------|5-5-0-0-2-2-2-2-|22222222|

CHORUS (guitar 1)

A
e |----------------|----------------|   X2 (stop on the last chord second time)
B |----------------|----------------|  
G |----------------|----------------|
D |12//////////////|4///6///7///9///|
A |12//////////////|4///6///7///9///|
E |10//////////////|2///4///5///7///|

B
e |----------------|----------------|   X2 (stop the second time on the last chord)
B |----------------|----------------|  
G |----------------|----------------|       
D |9--2--4/////////|9--2--4/////////|
A |9--2--4/////////|9--2--4/////////|
E |7--0--2/////////|7--0--2/////////|

CHORUS (guitar 2)


A
e |----------------|----------------|   X2 (stop on the last chord second time)
B |----------------|----------------|  
G |----------------|----------------|
D |12--------------|4---6---7---9---|
A |12--------------|4---6---7---9---|
E |10--------------|2---4---5---7---|

B
e |----------------|----------------|   X2 (rhythm is the same as the chords of guitar 1)
B |----------------|----------------|  	  (stop the second time on the last chord)
G |11--13--14--1414|14--13--11--1111|
D |----------------|----------------|
A |----------------|----------------|
E |----------------|----------------|

SOLO (guitar 1)

e |----------------|----------------|   X4
B |----------------|----------------|  
G |----------------|----------------|       
D |9--2--4/////////|9--2--4/////////|
A |9--2--4/////////|9--2--4/////////|
E |7--0--2/////////|7--0--2/////////|


e |----------------|----------------|   X2 (stop on the last chord)
B |----------------|----------------|  
G |----------------|----------------|
D |12//////////////|4///6///7///9///|
A |12//////////////|4///6///7///9///|
E |10//////////////|2///4///5///7///|

Guitar 2 (solo)
e |--------------------|---------------------|   
B |--------------------|---------------------|  	  
G |11911-911-911-------|11911-911-911--------|
D |--------------------|--------------11-9---|
A |--------------------|-------------------9-|
E |--------------------|---------------------|

e |---------------------|----------------------------|   
B |---------12----------|---12b14-10b12----10--------|  	  
G |------911--11--------|119------------11----11-----|
D |---911---------------|----------------------------|
A |912------------------|----------------------------|
E |---------------------|----------------------------|

e |-----------------5-----|-------------------------|   
B |------------8b10-------|-------10b12-------------|  	  
G |11911-11911------------|119--11-----119--9-------|
D |-----------------------|---11----------11-11-----|
A |-----------------------|--------------------9----|
E |-----------------------|-------------------------|

e |----------------------|--------------------|   
B |----------------------|--------------------|  	  
G |9b11-----------9b11---|11---13---14---16---|
D |----------------------|--------------------|
A |----------------------|--------------------|
E |----------------------|--------------------|


VERSE 
A (no guitars)

wait 4 bars (like chorus B)
B (Guitar 2)

e |--------------------------|--------------------------|   
B |12------------------------|------------------10------|  	  
G |11--13--14--14141414141414|14--13--11--111111--111111|
D |--------------------------|--------------------------|
A |--------------------------|--------------------------|
E |--------------------------|--------------------------|


e |--------------------------|--------------------------|    (stop on last chord)
B |------------------14------|--------------------------|  	  
G |11--13--14--141414--141414|14--13--11----------------|
D |--------------------------|--------------------------|
A |--------------------------|--------------------------|
E |--------------------------|--------------------------|

->Wait 1/2  bar (drumfill)!
SOLO 
Guitar 1 
e |----------------|----------------|   X8
B |----------------|----------------|  
G |----------------|----------------|       
D |9--2--4/////////|9--2--4/////////|
A |9--2--4/////////|9--2--4/////////|
E |7--0--2/////////|7--0--2/////////|

Guitar 2 (recorded)
e |----------------|----------------|   X4 
B |----------------|----------------|  	  
G |11--13-14///////|14--13-11///////|
D |----------------|----------------|
A |----------------|----------------|
E |----------------|----------------|

Guitar 2
e |-------------------|--------------------|   
B |-------------------|----10--------------|  	  
G |1199--9911b--------|1199--9911b---------|
D |----11-------------|--------------------|
A |-------------------|--------------------|
E |-------------------|--------------------|

e |-----------------------|--------------------|   
B |--------12b-10---------|--------------------|  	  
G |1199--99------11-119119|--------------------|
D |----11-----------------|119-----------------|
A |-----------------------|---12999b-----------|
E |-----------------------|--------------------|

e |-------------------|------------------|   
B |-------------------|------------------|  	  
G |1199--9911---------|1199--------------|
D |----11-------------|----1199----------|
A |-------------------|--------9---------|
E |-------------------|------------------|

e |-------------------|-------------------|   
B |-------------------|-------------------|  	  
G |1199--9911---------|1199--9911---------|
D |----11-------------|----11-------------|
A |-------------------|-------------------|
E |-------------------|-------------------|

Lyrics:

Before you think about running away, 
first you gotta learn how to walk. 
Before you say things you might regret, 
Think about the things that you already said. 
Our love is broken beyond repair. 
The saddest thing is, you don't care. 

And now I'm tryin' to find a way, to keep your words restrained. (x2) 

Why don't you keep your heart to yourself? 
Please don't throw it around. 
You're a girl that believes your own lies, 
Cause' someday they'll come back and ruin your life. 

Our love is broken beyond repair. 
The saddest thing is, you don't care. 

Now I'm tryin' to find a way, to keep your words restrained. (x2) 

And now i'm tryin' to find a way, to keep your words restrained. 
Maybe let's get a life, and better shuttin' your eyes. (x2)
Tap to rate this tab
# A B C D E F G H I J K L M N O P Q R S T U V W X Y Z