Song name
# A B C D E F G H I J K L M N O P Q R S T U V W X Y Z

The Sound City Players - From Can To Cant tab

Corey Taylor/Dave Grohl/Scott Reeder/Rick Nielsen.
All their rights are belong to them.
Standard tuning.
Capo fret 2.

Verse 1

E|-------------------------------------------------|
B|-------------------------------------------------|
G|---0-----0-----0-----0-----0-----0-----0-----0---|
D|-----2-----2-----2-----2-----2-----2-----2-----2-|
A|-------------------0-----3-----2-----0-----------|
E|-0-----2-----3-----------------------------3-----|x6

Chorus

E|-------------------------------------------------|
B|-------5-----------3---------0-----0-----0-----0-|
G|-----5---5-------4---4-----0-----0-----0-----0---|
D|---5-------5---4-------4-------------------------|
A|-3-----------2-----------------------------0-----|
E|-------------------------0-----2-----3-----------|x2
 
E|-----------------------------------------------------------------------|
B|-------5---------3-----------------------------------------------------|
G|-----5---5-----4---4-----0-----0-----0-----0----0------0-----0-----0---|
D|---5---------4-------4-----2-----2-----2-----2-----2-----2-----2-----2-|
A|-3---------2-----------------------------0-----------------------0-----|
E|-----------------------0-----2-----3-----------0-----2-----3-----------|

Heavy part. Play this with verse 1 in the background.

E|-----------------------------------|
B|-----------------------------------|
G|-------------------5---4-----------|
D|---2---4---5---7---5---4---7---5---|
A|---2---4---5---7---3---2---7---5---|
E|---0---2---3---5-----------5---3---|x4

Heavy Chorus


E|-------------------------------------------------------------------|
B|-------------------------------------------------------------------|
G|---5---4-------------------5---4-----------------------------------|
D|---5---4---2---4---5---7---5---4---2---4---5---7---2---4---5---7---|
A|---3---2---2---4---5---7---3---2---2---4---5---7---2---4---5---7---|
E|-----------0---2---3---5-----------0---2---3---5---0---2---3---5---|

Over solo, play this.

E|-----------------------------------|
B|-----------------------------------|
G|-----------------------------------|
D|---2---4---5---7---2---4---5---7---|
A|---2---4---5---7---2---4---5---7---|
E|---0---2---3---5---0---2---3---5---|x2

Heavy Chorus.
Verse, et cetera, et cetera.
Comments, corrections, and ratings are welcome.

Tap to rate this tab
 
# A B C D E F G H I J K L M N O P Q R S T U V W X Y Z