Song name
# A B C D E F G H I J K L M N O P Q R S T U V W X Y Z

The Steeldrivers - Where Rainbows Never Die tab

Standard Tuning
Capo: 2nd fret

Intro Riff:

e|---------------------------------------------------------------|
B|----3-----3----3------------------3-----3------3-----3----3----|
G|----2-----0----0------------------0-----0------2-----0----0----|
D|--0---------------------4--------------------0-----------------|
A|------0-2---2------0-2---------------2----2------0-2---2-----0-|
E|--------------------------2--3---------------------------------|


e|---------------------------------------------------------------|
B|------------3-----3------3-----3----3--------------------------|
G|------------0-----0------2-----0----0------0-------------------|
D|---4-------------------0---------------------4-0--------0------|
A|2--------------2----2------0-2---2-----0-2---------0h2---------|
E|-----2--3----------------------------------------3-------------|


Verses: The same riff but without the ending...

e|----------------------------------------------|
B|----3-----3----3------------------3-----3-----|
G|----2-----0----0------------------0-----0-----| Repeat
D|--0---------------------4---------------------|
A|------0-2---2------0-2---------------2----2---|
E|--------------------------2--3----------------|


Keep repeating riff throughout verse and chorus then...

Bm        A      G
When I reach the other side
B           A                 G
West of where the sunsets

Where rainbows never die... (Riff)



Bridge:

 A       
I've got one last thing to do
 G
One more mile before I'm through
 A
Casting off these earthly chains
 G
Going where there's no more pain...



During the solo the guitar strums...D, A, Bm, G


S-M-F

Tap to rate this tab
# A B C D E F G H I J K L M N O P Q R S T U V W X Y Z