Guitaretab - guitar tabs
Song name
# A B C D E F G H I J K L M N O P Q R S T U V W X Y Z

The Stunning - Brewing Up A Storm tab

Brewing Up A Storm. The Stunning. Guitar tab and lyrics.

Tabbed by Daire Joyce.

If you have any questions about the tab e-mail: dairejoyce@yahoo.ie or send me a comment and rate well!


The chords to use for the verses are: Am C Em G

Intro Riff:

E1----------------------------]
B2----------------------------]
G3----2-----0-----0-----0-----]
D4------2------2----2------0--]  Play four times then verse
A5--0-----3-------------------]
E6--------------0-----3-------]

Verse: 

Honey if the truth hurts don't look it might go away
It's easy to pretend that life is a rosy bouquet
I don't need a platter; I'll take it straight from the shelf
Give it to me raw, I'll take it home and cook it myself
E1----------------------------------]
B2----------------------------------]
G3----------------------------------]
D4-2-2-2-2-2-2-2-2------------------]
A5-0-0-0-0-3-3-3-3-2-2-2-2-2-2-2-2--]
E6-----------------0-0-0-0-3-3-3-3--] Play six times.

Play intro riff once then chorus:

Brewing up a storm,
Brewing up a storm,
Brewing up inside and his eyes are wild and it can't go on,
Hes brewing up a storm
E1------------]
B2------------]
G3-2--5--7----]
D4-2--5--7----]    Play five times
A5----3--5----]
E6------------]

Riff:

E1----------------------------]
B2----------------------------]
G3----2-----0-----0-----0-----]
D4------2-----2-----2-----0---]  Play two times then verse
A5--0-----3-------------------]
E6--------------0-----3-------]

Verse: 
[ Tab from: http://www.guitaretab.com/t/the-stunning/82510.html ]
Can't afford to lose touch, can't afford to lose control
The doors are open wide and the wind blows a bitter cold
Man holds a mystery someone else holds the key
It's a shame they're the same, the answer doesn't have to be
E1----------------------------------]
B2----------------------------------]
G3----------------------------------]
D4-2-2-2-2-2-2-2-2------------------]
A5-0-0-0-0-3-3-3-3-2-2-2-2-2-2-2-2--]
E6-----------------0-0-0-0-3-3-3-3--] Play six times.

Chorus:

Brewing up a storm,
Brewing up a storm,
Brewing up inside and his eyes are wild and it can't go on,
Hes brewing up a storm
E1------------]
B2------------]
G3-2--5--7----]
D4-2--5--7----]    Play five times
A5----3--5----]
E6------------]

Then harmonica solo then solo section:

E1--------------------------]
B2----------------------6~~-]
G3-7-7-5-7-7-5-7-7-5-7------]
D4--------------------------]
A5--------------------------]
E6--------------------------] Play four times then 

Verse:
                                           (Pause)
Fire in your eyes, in your head, fire in your    touch
But I can't shout fire 'cos I love you too much
The race is on the message in your soul
As a thousand thoughts a second now explode
E1----------------------------------]
B2----------------------------------]
G3----------------------------------]
D4-2-2-2-2-2-2-2-2------------------]
A5-0-0-0-0-3-3-3-3-2-2-2-2-2-2-2-2--]
E6-----------------0-0-0-0-3-3-3-3--] Play six times.

Chorus:
Brewing up a storm
Brewing up a storm
Brewing up inside and his eyes are wild and it can't go on
Hes brewing up a storm
Brewing up a storm
Brewing up inside and his eyes are wild and it can't go on
E1------------]
B2------------]
G3-2--5--7----]
D4-2--5--7----]    Play eight times
A5----3--5----]
E6------------]

Da da da da, da da da, da da da da
Da da da da, da da da, da da da da
Da da da da, da da da, da da da da
Da da da da, da da da, da da da da
Hes brewing up a storm.
E1--------------------------]
B2----------------------6~~-]
G3-7-7-5-7-7-5-7-7-5-7------]
D4--------------------------]
A5--------------------------]
E6--------------------------] Play four times.

End on:
E1-----------------]
B2-----------------]
G3--------2--------]
D4--------2--------]
A5-----------------]
E6-----------------]

THAT'S IT!!!
Related for Brewing Up A Storm tab