Guitaretab - guitar tabs
Song name
# A B C D E F G H I J K L M N O P Q R S T U V W X Y Z

The Subways - Oh Yeah tab

Hi,i saw a video from the cliks in youtube and I like this song a lot.
So I decided to look for the tab, the problem was those tabs weren't 
complete, so I will try to complete them.
Normal tune: EADGBe

Intro:
|-----------------------------------------------------------------|
|-----------------------------------------------------------------|
|-----------------------------------------------------------------|
|-------------------------4-4-2-2-----------------------------2-2-|
|-2-2---2-2-2---2-2-2---2-2-2-0-0-5-5---5-5-5---5-5-5---5-5-5-0-0-|
|-0-0---0-0-0---0-0-0---0---------3-3---3-3-3---3-3-3---3-3-3-----|
pm................................................................

|-------------------------------------------------------|
|-------------------------------------------------------|
|-------------------------------------------------------|
|-------------------------4-4-2-2-----------------------|
|-2-2---2-2-2---2-2-2---2-2-2-0-0-5-5---5-5-5---5-5-----|
|-0-0---0-0-0---0-0-0---0---------3-3---3-3-3---3-3-----|
pm................................................

Verse:
Oh yeah, oh yeah I've fallen down.....

|-00-000-000-000-033-333-333-333-300-000-000-000-022-222-233333333-|
|-00-000-000-000-033-333-333-333-311-111-111-111-133-333-355555555-|
|-00-000-000-000-044-444-444-444-422-222-222-222-244-444-455555555-| X2
|-22-222-222-222-255-555-555-555-522-222-222-222-244-444-455555555-|
|-22-222-222-222-255-555-555-555-500-000-000-000-022-222-233333333-|
|-00-000-000-000-033-333-333-333-300-000-000-000-022-222-233333333-|

Prechorus:
He's not listening ....
|----------------------------------------------------------|
|----------------------------------------------------------|
|----------------------------------------------------------|
|---------------------------------222222222222222244444444-|
|-55555555555555552222222222222222000000000000000022222222-|
|-33333333333333330000000000000000-------------------------|
pm........................................................

|---------------|
|---------------|
|-555555555~----|
|-555555555~----|
|-333333333~----|
|---------------|

Chorus:
I want, .....
|-3-x33-x33-x3x33-0-x00-x00-x0x00-1-x11-x11-x1x11------------|
|-3-x33-x33-x3x33-0-x00-x00-x0x00-1-x11-x11-x1x11-5--5--5--5-|
|-4-x44-x44-x4x44-0-x00-x00-x0x00-2-x22-x22-x2x22-5--5--5--5-|
|-5-x55-x55-x5x55-2-x22-x22-x2x22-3-x33-x33-x3x33-5--5--5--5-|X2
|-5-x55-x55-x5x55-2-x22-x22-x2x22-3-x33-x33-x0x33-3--3--3--3-|
|-3-x33-x33-x3x33-0-x00-x00-x0x00-1-x33-x33-x3x33------------|

Then
|--------------|
|--------------|
|-7777777777---|
|-7777777777---|
|-5555555555---|
|--------------|

Verse
Prechorus
Chorus
[ Tab from: http://www.guitaretab.com/t/the-subways/135397.html ]
Then
Bah,ah, ah,ack
|-----------------------------------------------------------------|
|-----------------------------------------------------------------|
|-5-5-5-5-5-5-5-5-----------------5-5-5-5-5-5-5-5-7-7-7-7-7-7-7-7-|
|-5-5-5-5-5-5-5-5-3-3-3-3-3-3-3-3-5-5-5-5-5-5-5-5-7-7-7-7-7-7-7-7-|
|-3-3-3-3-3-3-3-3-3-3-3-3-3-3-3-3-3-3-3-3-3-3-3-3-5-5-5-5-5-5-5-5-|
|-----------------1-1-1-1-1-1-1-1---------------------------------|

Solo
|---------------------------------------------------------------|
|---------------------------------------------------------------|
|-14b16r14-12-14-12--------------14b16r14-12-14-14b16r14-12~----|
|-------------------14----12-14~--------------------------------|
|----------------------14---------------------------------------|
|---------------------------------------------------------------|

|---------------------------------------------------------------|
|---------------------------------------------------------------|
|----12----12----12----12h14-12---------------------------------|
|-14----14----14----14----------14~--14-14-14-14----------------|
|------------------------------------------------14~-14-14-15~--|
|---------------------------------------------------------------|

|----15-15----17----15----17----15------14----15----14----15----14-|
|-17-------17----17----17----17------15----15----15----15----15----|
|------------------------------------------------------------------|
|------------------------------------------------------------------|
|------------------------------------------------------------------|
|------------------------------------------------------------------|

|----14----17----14----15----14------14--14--14--14--15--15--15--15|
|-15----15----15----15----15-------15--15--15--15--15--15--15--15--|
|------------------------------------------------------------------|
|------------------------------------------------------------------|
|------------------------------------------------------------------|
|------------------------------------------------------------------|

|-15~---|
|-15~---|
|-------|
|-------|
|-------|
|-------|

Palm Mute: He's not listening...
|--------------------------------------|
|--------------------------------------|
|--------------------------------------|
|-----------------2(X16)-4-(X8)-5-(X8)-|
|-5-(X16)-2-(X16)-0------2------3------|
|-3-------0----------------------------|

Prechorus

Chorus

Then
Bah,ah, ah,ack
|-----------------------------------------------------------------|
|-----------------------------------------------------------------|
|-5-5-5-5-5-5-5-5-----------------5-5-5-5-5-5-5-5-7-7-7-7-7-7-7-7-|
|-5-5-5-5-5-5-5-5-3-3-3-3-3-3-3-3-5-5-5-5-5-5-5-5-7-7-7-7-7-7-7-7-|
|-3-3-3-3-3-3-3-3-3-3-3-3-3-3-3-3-3-3-3-3-3-3-3-3-5-5-5-5-5-5-5-5-|
|-----------------1-1-1-1-1-1-1-1---------------------------------|
Related for Oh Yeah tab