Song name
# A B C D E F G H I J K L M N O P Q R S T U V W X Y Z

The Swell Season - When Your Minds Made Up tab

-----------------------------------------------------------------------------
                  When your mind's made up - The Swell Season
-----------------------------------------------------------------------------
Tabbed by: Tom Nichols
E-mail: tom@tomnichols.com

Tuning: Standard
Rhythm: 5/4

Intro sequence
           [C]                     [Am11]
e|-----------------------||----------------------|
B|-----------------------||----------------------|
G|---5-----5----5-----5--||---5-----5----5-----5-|
D|--5-5---5----5-5---5---||--5-5---5----5-5---5--|
A|3-----3----3-----3-----||----------------------|
E|-----------------------||5-----5----5-----5----|

  [Gsus46th] [G6]                   [Fmaj7]
e|-----------------------||----------------------|
B|-----------------------||----------------------|
G|---5-----5----4----4---||---2-----2----2-----2-|
D|--5-5---5----5-5---5---||--3-3---3----3-3---3--|
A|-----------------------||3-----3----3-----3----|
E|3-----3----3-----3---0-||1-----1----1-----1----|

Verse sequence
e|-----------------------||----------------------|
B|-----------------------||--(1)---(1)--(1)---(1)|
G|---5-----5----5-----5--||---5-----5----5-----5-|
D|--5-5---5----5-5---5---||--5-5---5----5-5---5--|
A|3-----3----3-----3-----||----------------------|
E|-----------------------||5-----5----5-----5----|

e|-------------(0)--(0)--||--(0)---(0)--(0)---(0)|
B|---1-----1---(0)--(0)--||--(1)---(1)--(1)---(1)|
G|---5-----5----4----4---||---2-----2----2-----2-|
D|--5-5---5-----5----5---||--3-3---3----3-3---3--|
A|-------------5-5---5---||3-----3----3-----3----|
E|3-----3----3-----3---0-||1-----1----1-----1----|

Chorus chord sequence
[Am11]    [G6]    [Fmaj7]

Verse 1
So, if you want ever somethin'
And you call, call then I'll come runnin'
To fight, and I'll be at your door
When there's no-one worth runnin' from

Chorus 1
When your mind's made up
When your mind's made up
There's no point trying to change it
When your mind's made up 
When your mind's made up
There's no point even talkin'

Verse 2
You see, you're just like everyone
When the shit falls all you want to do is run away
And hide all by yourself
Where there's no-one who's gonna run to hell

Chorus 2
When your mind's made up
When your mind's made up
There's no point trying to fight it
When your mind's made up
When your mind's made up
There's no point even talkin'

Refrain (chorus sequence... go a bit mental here with your strumming)
When your minds...  your mind...
Ohhhhhhhhhh
There's no point trying to change it 
When your... ahhhhhhhhhhh
When you're go.... ohhhhhhhhhhh

Outro (verse sequence)
So, if you ever want somethin'
And you call, call
Then I'll come runnin'
Tap to rate this tab
# A B C D E F G H I J K L M N O P Q R S T U V W X Y Z