Guitaretab - guitar tabs
Song name
# A B C D E F G H I J K L M N O P Q R S T U V W X Y Z

The Tallest Man On Earth - I Wont Be Found tab

This is definitely not exactly how he plays this song, but I think it sounds pretty 
 Full lyrics at bottom.
                    -Mansfield Waddleton


DROPPED D TUNING:     DADGBE

VERSE:

  Well if I ever see the morning
E-------------------0-------------------------|
B--------------3-----------3------------------|
G---------0H2-----------------------2---------|
D------0---------0---------0---------0--------|
A---------------------------------------------|
D-0---------0---------0---------0-------------|

  Just like a lizard in the spring
E-------------------0-------------------------|
B--------------3-----------3------------------|
G---------0H2-----------------------2---------|
D------0---------0---------0---------0--------|
A---------------------------------------------|
D-4---------4---------4---------4-------------|

  I'm going to run out in the meadow
E-------------------3-------------------------|
B------3-------------------3------------------|
G---------------0-------------------0---------|
D------0---------0---------0---------0--------|
A---------------------------------------------|
D-5---------5---------5---------5-------------|

  To catch the silence when it sings
E---------------------------------------------|
B--------2----------3--------2----------------|
G---2---------2---------2---------2-----------|
D------2---------2---------2---------2--------|
A-0---------0---------0---------0-------------|
D---------------------------------------------|


REFRAIN:

Well if I ever get to...
E-------------------3-------------------------|
B------3-------------------3------------------|
G---------------0-------------------0---------|
D------0---------0---------0---------0--------|
A---------------------------------------------|
D-5---------5---------5---------5-------------|

slumber
E---------0H2---------------------------------|
B-------------------3-------------------------|
G------------------------2--------------------|
D------0---------0---------0---------0--------|
A---------------------------------------------|
D-0---------0---------0---------0-------------|

Just like a mole deep in the...
E-------------------3-------------------------|
B------3-------------------3------------------|
G---------------0-------------------0---------|
D------0---------0---------0---------0--------|
A---------------------------------------------|
D-5---------5---------5---------5-------------|

ground
E---------------------------------------------|
B--------2----------3--------2----------------|
G---2---------2---------2---------2-----------|
D------2---------2---------2---------2--------|
A-0---------0---------0---------0-------------|
D---------------------------------------------|

                                                                          ...Hell, I 
be found
E---------------------------------------------|
B---------------------------------------------|
G---------------------------------------------|
D------2---------2---------2---------2--------|
A-0---------0---------0---------0-------------|
D---------------------------------------------|

BRIDGE:
[ Tab from: http://www.guitaretab.com/t/the-tallest-man-on-earth/188080.html ]
I know there is a hollow
E---------------------2-----------------------|
B--------3--------------------3---------------|
G---------------4-------------------4---------|
D------4---------4---------4---------4--------|
A-2---------2---------2---------2-------------|
D---------------------------------------------|

I need to fill it with a draft
E---------------------2-----------------------|
B--------3--------------------3---------------|
G---------------4-------------------4---------|
D------4---------4---------4---------4--------|
A-0---------0---------0---------0-------------|
D---------------------------------------------|

Of all the words that I won't...
E-------------------3-------------------------|
B------3-------------------3------------------|
G---------------0-------------------0---------|
D------0---------0---------0---------0--------|
A---------------------------------------------|
D-5---------5---------5---------5-------------|

 say
E---------------------------------------------|
B--------0----------2--------2----------------|
G---2---------2---------2---------2-----------|
D------2---------2---------2---------2--------|
A-0---------0---------0---------0-------------|
D---------------------------------------------|

And with a quiet whisper
E---------------------2-----------------------|
B--------3--------------------3---------------|
G---------------4-------------------4---------|
D------4---------4---------4---------4--------|
A-2---------2---------2---------2-------------|
D---------------------------------------------|

I'll set a curse upon the day
E---------------------2-----------------------|
B--------3--------------------3---------------|
G---------------4-------------------4---------|
D------4---------4---------4---------4--------|
A-0---------0---------0---------0-------------|
D---------------------------------------------|

That didn't use the sun
E-------------------3-------------------------|
B------3-------------------3------------------|
G---------------0-------------------0---------|
D------0---------0---------0---------0--------|
A---------------------------------------------|
D-5---------5---------5---------5-------------|

                                                                                   ...To 
the light
E---------------------------------------------|
B--------2----------3--------2----------------|
G---2---------2---------2---------2-----------|
D------2---------2---------2---------2--------|
A-0---------0---------0---------0-------------|
D---------------------------------------------|


Well if I ever see the morning
Just like a lizard in the spring
Iím gonna run out in the meadow
To catch the silence when it sings

Iím gonna force the Serengeti
To disappear into my eyes
Then when I hear your voices calliní
Iím gonna turn just inside out

Well if I ever get to slumber
Just like a mole deep in the ground
Hell, I wonít be found

Deep in the dust forgotten gathered
I grow a diamond in my chest
I make reflections as the moon shines on
Turn to a villain as I rest

Well if I ever get to slumber
Just like a mole deep in the ground
Hell, I wonít be found

I know there is a hollow
I need to fill it with a draft
Of all the words that I wont way
And with a quiet whisper
I send a curse upon the day
That never used the sun to see
The light

Iím gonna float up in the ceiling
I built a levee of the stars
And in my field of tired horses
I built a freeway through this farce

Well if I ever get that slumber
Ill be that mole deep in the ground
And I wonít be found
Related for I Wont Be Found tab