Song name
# A B C D E F G H I J K L M N O P Q R S T U V W X Y Z

The Tallest Man On Earth - Revelation Blues tab

-------------------------------------------------------------------------------
                Revelation Blues - The Tallest Man On Earth
-------------------------------------------------------------------------------
Tabbed by: Neil Wicker
E-mail: wicker101@hotmail.co.uk

Tuning: Standard

(based on this live version - http://www.youtube.com/watch?v=gCjG_KdCtZ0
you might have to move the capo around to play along with other versions)

originally in an alternate tuning but here's my standard tuning version. You can listen 
to me playing this version here - https://soundcloud.com/wicker101/revelation-blues

capo 6 (standard EADGBe tuning)

intro:

C                            Csus4
e|---------------------------|---------------------------|
B|-------1----------1--------|-------1----------1--------|
G|-----0------0-----------0--|-----0------0-----------0--|
D|---------2-----------2-----|---------3-----------3-----|
A|--3------------3-----------|--3------------3-----------|
E|---------------------------|---------------------------|

C                            Csus4
e|---------------------------|---------------------------|
B|-------1----------1--------|-------1----------1--------|
G|-----0------0-----------0--|-----0------0-----------0--|
D|---------2-----------2-----|---------3-----------3-----|
A|--3------------3-----------|--3------------3-----------|
E|---------------------------|---------------------------|


Intro part II:

e|--3---0---------------0--|-------------------------|
B|-----------3--1--3-------|--1--1----1-----1-----1--|
G|--0---0----0--0--0----0--|--2--2----2-----0-----0--|
D|--------2----------2-----|-------2-----------2-----|
A|--3-----------3----------|-------------------------|
E|-------------------------|--1----------1-----------|


e|--0--0--------3p1--------|-------------------------|
B|-----------1------1------|--3--3-----3-----0-------|
G|--0--0-----0-------0--0--|--0--0-----0-----0-----0-|
D|--------0-----------0----|--------3-----------3----|
A|--0-----------0----------|-------------------------|
E|-------------------------|--3-----------3----------|

verse:

    Cadd9                          F
e|----------------------------|----------------------------|
B|-------3-----------3--------|-------1-----------1--------|
G|-----0-------0-----------0--|-----2-------2-----------2--|
D|----------2-----------2-----|----------3-----------3-----|
A|--3-------------3-----------|----------------------------|
E|----------------------------|--1-------------1-----------|

   Am               F          Cadd4
e|----------------------------|----------------------------|
B|-------1------------1-------|-------1-----------1--------|
G|-----2-------2----2------2--|-----0-------0-----------0--|
D|----------2-----------3-----|----------3-----------3-----|
A|--0-------------------------|----------------------------|
E|----------------1-----------|--3-------------3-----------|

Chorus: (a couple of tricky chords here, just take time to get used to the changes...I 
still make mistakes as you can hear in the rough recording linked above)

e|-------------1--------------|-------------1--------------|
B|-------1-----------1--------|-------1-----------1--------|
G|-----2-------------------2--|-----0-------------------0--|
D|----------3-----------3-----|----------3-----------3-----|
A|--0-------------0-----------|----------------------------|
E|----------------------------|--3-------------3-----------|

e|-------------3--------------|----------------------------|
B|-------1-----------1--------|-------1-----------1--------|
G|-----4-------------------4--|-----4-------4-----------0--|
D|----------5-----------5-----|----------2-----------2-----|
A|----------------------------|--0-------------0-----------|
E|--0-------------0-----------|----------------------------|

e|----------------------------|----------------------------|
B|-------1-----------1--------|-------1-----------1--------|
G|-----2-------2-----------2--|-----0-------0-----------0--|
D|----------3-----------3-----|----------3-----------3-----|
A|----------------------------|----------------------------|
E|--1-------------1-----------|--3-------------3-----------|

e|----------------------------|----------------------------|
B|-------1-----------1--------|-------1-----------1--------|
G|-----0-------0-----------0--|-----0-------0-----------0--|
D|----------3-----------3-----|----------3-----------3-----|
A|----------------------------|----------------------------|
E|--3-------------3-----------|--3-------------3-----------|

Bridge:

  Am                        C/G
e|----------------------------|----------------------------|
B|-------1-----------1--------|-------1-----------1--------|
G|-----2-------2-----------2--|-----0-------0-----------0--|
D|----------2-----------2-----|----------2-----------2-----|
A|--0-------------0-----------|----------------------------|
E|----------------------------|--3-------------3-----------|

   F
e|----------------------------|----------------------------|
B|-------1-----------1--------|-------1-------------1------|
G|-----2-------2-----------2--|-----2-------2-----0-------0|
D|----------3-----------3-----|----------3-------------3---|
A|----------------------------|--0-------------------------|
E|--1-------------1-----------|----------------3-----------|

Bridge end:
e|----------------------------|
B|-------1-----------1--------|
G|-----0-------0-----------0--|
D|----------3-----------3-----|
A|----------------------------|
E|--3-------------3-----------|


song structure:
intro
intro part II x2
verse x2
chorus
intro part II x2
verse x2
chorus
intro part II x2
bridge x4
verse x2
chorus
intro part II x2
chorus
Tap to rate this tab
# A B C D E F G H I J K L M N O P Q R S T U V W X Y Z