Song name
# A B C D E F G H I J K L M N O P Q R S T U V W X Y Z

The Tallest Man On Earth - Love Is All tab

The Tallest man on earth - Love is all

 I know this is very rough but it works just fine once you get the timing,
 the tab is far away from being any help in rhythm and timing, it's only the
 chords, forgive me that. corrections welcome, the first part of the intro
 ain't quite right

capo7

Intro

d|-0--------------0--0------|
B|-0---------0-h1-0--0------|
G|-0---------0----0--0------|
D|-2---------2----0--2------|
A|-2---------3----2--0------|
E|-0-0-2--3--3----0--0-2-3--|

*
d|-0----------------------| 2x
B|-1-p0h1--0-h3-1-p0h1-0--|
G|-0-------0----2------0--|
D|-2-------0----0------0--|
A|-0-------2----0------2--|
E|-3-------3----2------3--|

Verse

d|-0---0---0---0-----0--0--0--0-----|
B|-0---0---0---0h1---0--0--0--0-----|
G|-0---0---0---0-----0--0--0--0-----| then right back to Intro*
D|-0---2---0---0h2---0--0--2--0-----|
A|-2---0---0---0-----2--0--0--0-----|
E|-0---0---2---3-----3--2--0--2-----|

2nd Verse
d|-0---0---0---0---0---0--0--0--0-----|
B|-0---0---0---0h1-0h1-0--0--0--0-----|
G|-0---0---0---0---0---0--0--0--0-----| then right back to Intro*
D|-0---2---0---0h2-2---0--0--2--0-----|
A|-2---0---0---3---3---2--0--0--0-----|
E|-0---0---2-----------3--2--0--2-----|

Chorus
d|--0-----0---0-0------------------------|
B|--0--h3-0h1p0-1---1-p0h1-1h3p1--1------|
G|--2-----0---0-0---2------0------2------| then right back to Intro*
D|--0-----0h2p0-2---2------2------0------|
A|--0-----0---3-3---0------2------0------|
E|--2-----3---2-3---0------0------2------|


Verse
Well I walk upon the river like it's easier than land
Evil's in my pocket and your will is in my hand
Oh, your will is in my hand

Verse2
And I'll throw it in the current that I stand upon so still
Love is all, from what I've heard, but my heart's learned to kill
Oh, mine has learned to kill

Chorus
Oh, I said I could rise
From the harness of our goals
Here come the tears
But like always, I let them go
Just let them go

Verse
And now spikes will keep on falling from the heavens to the floor
The future was our skin and now we don't dream anymore
No, we don't dream anymore

Verse2
Like a house made from spider webs and the clouds rolling in
I bet this mighty river's both my savior and my sin
Oh, my savior and my sin

Chorus
Oh, I said I could rise
From the harness of our goals
Here come the tears
But like always, I let them go
Just let them go

Verse
Well I walk upon the river like it's easier than land
Evil's in my pocket and your strength is in my hand
Your strength is in my hand

Verse2
And I'll throw you in the current that I stand upon so still
Love is all, from what I've heard, but my heart's learned to kill
Oh, mine has learned to kill

Chorus
Oh, I said I could rise
From the harness of our goals
Here come the tears
But like always, I let them go
Just let them go 
Tap to rate this tab
 
# A B C D E F G H I J K L M N O P Q R S T U V W X Y Z