Song name
# A B C D E F G H I J K L M N O P Q R S T U V W X Y Z

The Tallest Man On Earth - Thrown Right At Me chords

Highlighted       Show chord diagrams
Tallest man on earth - Thrown right at me

standard capo 5th
Chords
C/G 302010
G7 323010
G* 320030
F#dim x5656x
Em(7) 022030

Intro:

e|---0--0-----|
B|---1--1-----|
G|---0--0-----|
D|---2--2-----|
A|---3--0-----|
E|------3-----|

C                    C/G
Jump 'long the creekside
F                   C
The rock's crooked line
F#                     Am
Fun girls, you'll hear it
F                C
The days open wide

C                  F             G7          C
And horses trot faster 'til sparrows fall down
   F#               Am               F              C
But you just fall, laughin', to the snow on the ground
F             G7           C           F
You grew up by playin' the valley so wild
           Em     (7)
And that's why
G*                    C
You're so beautiful now

(you can pull-on or bend)
e|---0--3-0---------------0---3-0-------------------------|
B|---1------3-0--6--5-----1-------3-0-1--p3(b)-1----------|
G|---0-----------5--------0-----------2--p2(b)-0----------|
D|---2-----------6--------2-----------3--------2----------|
A|---3-----------5--------------------3--------3----------|
E|--------------------------------------------------------|

you can pull or bend

And, dancin' your bike to the lonesome, young mare
You call up her owner; say your heart will be there
You'll build a collection of scars on your knees
To learn how to count the impossible trees
You grew up by climbin' the birches so high
And that's why
You're so beautiful now

And we live so close that we probably seen
The same bird, the same time
They solumnly scream
One day, I'll find just that friend who can see
All this weird beauty
Thrown right at me

Growin' by playin' the valley so wild
And that's why
You're so beautiful now 
Tap to rate this tab
 
# A B C D E F G H I J K L M N O P Q R S T U V W X Y Z