Song name
# A B C D E F G H I J K L M N O P Q R S T U V W X Y Z

The Temper Trap - Fader tab

-------------------------------------------------------------------------------
			     FADER - The Temper Trap
-------------------------------------------------------------------------------
Tabbed by: ET
Tuning: Standard

My first tab, an easy song though.


*INTRO* (0:00 - 0:06)
No guitar, only synths.


*VERSE 1* (0:07 - 0:34)

No guitar, only bass.
However the chords played are:

A D G E 
A D G D
A D G E
A D G G



*CHORUS* (0:35 - 1:03)

Guitar 1 plays throughout the chorus

e|----------------------------------------------------------------|
B|----------------------------------------------------------------|
G|--------------77777777----------------------------------(x4)----|
D|----77777777--77777777--5555555555555555----------------(x4)----|
A|----77777777--55555555--5555555555555555----------------(x4)----|
E|----55555555------------3333333333333333----------------(x4)----|


Guitar 2 (0:50 - 1:03)

e|----------------------------------------------------------------|
B|----------------------------------------------------------------|
G|----11----9-----11----9-----11----9-----7--------------(x2)-----|
D|----x-x3--x-x3--x-x3--x-x3--x-x3--x-x6--x-x3-----------(x2)-----|
A|----9-----7-----9-----7-----9-----7-----5--------------(x2)-----|
E|----------------------------------------------------------------|





*VERSE 2* (1:04 - 1:32)

The same as verse 1
No guitar, only bass.
However the chords played are:

A D G E 
A D G D
A D G E
A D G G



*CHORUS 2* (1:33 - 2:00)


Guitar 1 plays throughout the chorus

e|----------------------------------------------------------------|
B|----------------------------------------------------------------|
G|--------------77777777----------------------------------(x4)----|
D|----77777777--77777777--5555555555555555----------------(x4)----|
A|----77777777--55555555--5555555555555555----------------(x4)----|
E|----55555555------------3333333333333333----------------(x4)----|


Guitar 2 this time also plays throughout

e|----------------------------------------------------------------|
B|----------------------------------------------------------------|
G|----11----9-----11----9-----11----9-----7--------------(x4)-----|
D|----x-x3--x-x3--x-x3--x-x3--x-x3--x-x6--x-x3-----------(x4)-----|
A|----9-----7-----9-----7-----9-----7-----5--------------(x4)-----|
E|----------------------------------------------------------------|




*GUITAR SOLO* (2:01 - 2:14)

Guitar 1 plays throughout

e|----------------------------------------------------------------|
B|----------------------------------------------------------------|
G|--------------77777777----------------------------------(x4)----|
D|----77777777--77777777--5555555555555555----------------(x4)----|
A|----77777777--55555555--5555555555555555----------------(x4)----|
E|----55555555------------3333333333333333----------------(x4)----|

Guitar 2 is the solo guitar - ^ indicates a bend

e|----------------------------------------------------------------|
B|----------------------------------------------------------------|
G|------^9p7---7----------7---------^9p7---7----------9-7---------|
D|----------h9---9--7--h9---9-----------h9---9--7--h9-----9-------|
A|----------------------------------------------------------------|
E|----------------------------------------------------------------|


*CHORUS 3* (2:15 - end)

Guitar 1 plays throughout

e|----------------------------------------------------------------|
B|----------------------------------------------------------------|
G|--------------77777777----------------------------------(x4)----|
D|----77777777--77777777--5555555555555555----------------(x4)----|
A|----77777777--55555555--5555555555555555----------------(x4)----|
E|----55555555------------3333333333333333----------------(x4)----|


Guitar 2 plays throughout

e|----------------------------------------------------------------|
B|----------------------------------------------------------------|
G|----11----9-----11----9-----11----9-----7--------------(x4)-----|
D|----x-x3--x-x3--x-x3--x-x3--x-x3--x-x6--x-x3-----------(x4)-----|
A|----9-----7-----9-----7-----9-----7-----5--------------(x4)-----|
E|----------------------------------------------------------------|


Fade out.
Tap to rate this tab
# A B C D E F G H I J K L M N O P Q R S T U V W X Y Z