Song name
# A B C D E F G H I J K L M N O P Q R S T U V W X Y Z

The Tossers - Siobhan tab

-------------------------------------------------------------------------------
			     Siobhan - The Tossers
-------------------------------------------------------------------------------
Tabbed by:Me

This tab was made so you can play the mandolin part of this
song on your guitar, and it's quite fun :]
You might be able to use this exact tab to play on mandolin.
I's not sure though, I don't play the mandolin, yet.
The guitar is gonna sound more like the banjo in the song though
it's the same notes as the mandolin, just different octaves. 

Tuning: standard.

  Intro/Verse/Fill
e|-------------------------------0-2-3--3-3----------------------|
B|--------------------3-3-5-3--3------------3-5-3-3--------------|
G|-0--0-0-2-4-2-0-2-4--------------------------------4-4-2-2-0-2-|
D|---------------------------------------------------------------|
A|---------------------------------------------------------------|
E|---------------------------------------------------------------|

e|-------------------------------------0-2-3--3-3----------3-5-5p3p2-3-|
B|--------------------------3-3-5-3--3------------3-5-3--3-------------|
G|-------0--0-0-2-4-2-0-2-4--------------------------------------------|
D|-0h2h4---------------------------------------------------------------|
A|---------------------------------------------------------------------|
E|---------------------------------------------------------------------|


  Chorus 
e|---0-2-3-333----------3-333-----3-333---------------------|
B|-3-----------3-5-3--3-------5-3-------3-5-3-3-------------|
G|----------------------------------------------4-4-2-2-0-2-|
D|----------------------------------------------------------|
A|----------------------------------------------------------|
E|----------------------------------------------------------|

e|-------------------------------------0-2-3--3-3----------3-5-5p3p2-3-|
B|--------------------------3-3-5-3--3------------3-5-3--3-------------|
G|-------0--0-0-2-4-2-0-2-4--------------------------------------------|
D|-0h2h4---------------------------------------------------------------|
A|---------------------------------------------------------------------|
E|---------------------------------------------------------------------|


  Bridge  
e|----------------------|
B|-3t----3t----1t-0t-3t-|
G|----4t----4t----------|
D|----------------------|
A|----------------------|
E|----------------------|


  Outro
e|-3-33------------------------|
B|------3-3--------------------|
G|-----------4-4-2-2-0-0-2-2-0-|
D|-----------------------------|
A|-----------------------------|
E|-----------------------------|
Tap to rate this tab
 
# A B C D E F G H I J K L M N O P Q R S T U V W X Y Z