Song name
# A B C D E F G H I J K L M N O P Q R S T U V W X Y Z

The Tower And The Fool - How Long chords

Highlighted       Show chord diagrams
-------------------------------------------------------------------------------
                             How Long - The Tower and the Fool
-------------------------------------------------------------------------------
Tabbed by:Julian Dotson
E-mail:JulianJDotson@Gmail.Com

Tuning: Standard E, Capo on the first fret

INTRO - These are the chords. Firgure out the strumming patterns yourself. They're not hard.
   C         F7?             G       F
e|-x----------0--0----0------x--------x------------------------------------------------|
B|-1--1-------1--1----1------x--------x------------------------------------------------|
G|-0--0-------2--2p0--0------0--------0------------------------------------------------|
D|-2--0h2-----3--3----3p0----0--------3------------------------------------------------|
A|-3--3-------0--0----0------2--------3------------------------------------------------|
E|-0--0-------x--x----x------3--------1------------------------------------------------|

C                                                        F7         F7
She might not know it, but she wears my heart on her sleeve
G
And I know this for sure by the hole in my chest
F
And the bloodstains that run down her street



Chorus
C
How long?
F7                                 G     F    G     F
How long am I going to feel this way?
C
How long?
F7                                  G     F     G    F
How long until something washes her away?

Now torwards the end of the song it's switched up a bit, right after, "As I was heading
home from the west coast". It gets heavier and it goes with the same strumming pattern,
but after the heavy strumming it goes C to F7 then lightly to an F. Then in the 
immediate next progression it goes F7 to F, move the pinky to 3rd fret on e then to the 5th fret.
Listen to the song for the exact pattern, but these are the notes.

I'm very confident that these are the rythmm guitar notes. Email me if any questions.
************************************

| /   slide up
| \   slide down
| h   hammer-on
| p   pull-off
| ~   vibrato
| +   harmonic
| x   Mute note
| b   Bend
| pb  Pre-bend
| br  Bend release
| pbr Pre-bend release
| brb Bend release bend

************************************
Tap to rate this tab
# A B C D E F G H I J K L M N O P Q R S T U V W X Y Z