Song name
# A B C D E F G H I J K L M N O P Q R S T U V W X Y Z

The Treatment - Departed tab

The Treatment
   -    Departed

Transcribed by Michael Lewis
   -    Twitter: @MyCool_Lewis

Notes: 
   -    Tune down one half step

Intro
eb|---------------------------|
Bb|---------------------------|
Gb|-4---4-4---4---4-4---4/7---|
Db|-4---4-4---4---4-4---4/7---|
Ab|-0h2-2-2---0h2-2-2---2/5---|
Eb|---------------------------|

Lead
eb|-------------------------------------------------------------|
Bb|---------------------------3---3h5-5-5--5-3h5-5-5--5---------|
Gb|-2h4-4-4--4-2h4-4-4--4-2h4---------------------------2--2-2--|
Db|-------------------------------------------------------------|
Ab|-------------------------------------------------------------|
Eb|-------------------------------------------------------------|
  |
eb|-------------------------------------------------------------|
Bb|-------------------------------------------------------------|
Gb|-4---4-4--4-4---4-4--4-4---7---7/9-9-9--9-7/9-9-9--9-2--2-2--|
Db|-4---4-4--4-4---4-4--4-4---7---7/9-9-9--9-7/9-9-9--9-2--2-2--|
Ab|-0h2-2-2--2-0h2-2-2--2-0h2-5---5/7-7-7--7-5/7-7-7--7-0--0-0--|
Eb|-------------------------------------------------------------|

Verse                         x3
eb|-----------------------------|-----------------------|
Bb|-----------------------------|-----------------------|
Gb|-4---4-4--4-4---4-4--4-4---7-|--7/9-9-9---7--7--6-5--|
Db|-4---4-4--4-4---4-4--4-4---7-|--7/9-9-9---7--7--6-5--|
Ab|-0h2-2-2--2-0h2-2-2--2-0h2-5-|--5/7-7-7---5--5--4-3--|
Eb|-----------------------------|-----------------------|

Chorus (Bang! Bang! Bang!)
eb|---------------------------------------------|
Bb|---------------------------------------------|
Gb|-4--7-9---4-7-9--4--7-9---4-4-2--------2--3--|
Db|-4--7-9---4-7-9--4--7-9---4-4-2-5--2---2--3--|
Ab|----------------------------2-0-5--2---0--1--|
Eb|--------------------------------3--0---------|
  |
eb|---------------------------------------------|
Bb|---------------------------------------------|
Gb|-4--------------------------4-2--------2--3--|
Db|-4--------------------------4-2-5--2---2--3--|
Ab|-2--------------------------2-0-5--2---0--1--|
Eb|--------------------------------3--0---------|

Solo
eb|-----------------------------------12-------------------------|
Bb|----------------------------x-15fb----15p12----12-15p12----12-|
Gb|-14fb--14---------------12------------------14----------14----|
Db|-----------14--14----12---------------------------------------|
Ab|------------------14------------------------------------------|
Eb|--------------------------------------------------------------|

eb|---------------------------------14------14------14------16-|
Bb|-15p12----12----------------17fb----17fb----17fb----19fb----|
Gb|-------14----14fb-14-12-------------------------------------|
Db|------------------------14----------------------------------|
Ab|------------------------------------------------------------|
Eb|------------------------------------------------------------|

eb|------16------16-------17------17------------|
Bb|-19fb----19fb-----20fb----20fb---------------|
Gb|----------------------------------19hbr-16---|
Db|---------------------------------------------|
Ab|---------------------------------------------|
Eb|---------------------------------------------|

Solo Rhythm                      x2 
eb|--------------------------------|--------------------------------|
Bb|--------------------------------|--------------------------------|
Gb|--------------------------------|--------------------------------|
Db|-2------------------------------|-4------------------------------|
Ab|-2------------------------------|-4------------------------------|
Eb|-0--0-0-0-0-0-0-0-0-0-0-0-0-0-0-|-2--2-2-2-2-2-2-2-2-2-2-2-2-2-2-|
       . . . . . . . . . . . . . .      . . . . . . . . . . . . . .
eb|-----------|
Bb|-----------|
Gb|-----------|
Db|-5------7--|
Ab|-5------7--|
Eb|-3------5--|

Finale
eb|-----------------------------------|
Bb|-----------------------------------|
Gb|-2h4-4-4--2h4-4-4--2/7-------4-----|
Db|-----------------------------------|
Ab|-----------------------------------|
Eb|-----------------------------------|
  |
eb|-----------------------------------|
Bb|-----------------------------------|
Gb|-4---4-4--4---4-4----7-------4-----|
Db|-4---4-4--4---4-4----7-------4-----|
Ab|-0h2-2-2--0h2-2-2--0-5-------2-----|
Eb|-----------------------------------|

Legend:
p - pull off
h - hammer on
hb -half bend (one half step)
fb - full bend (one whole step)
r - release bend
x - dead note
/\ - slide up, down
. - palm mute
tr - trill
Tap to rate this tab
# A B C D E F G H I J K L M N O P Q R S T U V W X Y Z