Guitaretab - guitar tabs
Song name
# A B C D E F G H I J K L M N O P Q R S T U V W X Y Z

The Trews - Hold Me In Your Arms tab

believe me if uve heard of this band u would know how much ass they kick, this song 
if u havnt heard this song, download it asap. u will become an instant fan

Intro
E|------------------------------------------------------------------|
B|------------------------------------------------------------------|
G|--7/9---9--9--9--7--9--9------------------------------------------|
D|--7/9---9--9--9--7--9--9--------5-7-5-----------------------------|  X4 on 4th time jus play
A|--5/7---7--7--7--5--7--7----5-7-------7---------------------------|     beginning chords and
E|------0-----------------------------------|     hold on last 799--|

Verse
E|--X-X----------------|                E|--X-X------------------------|
B|--X-X----------------|                B|--X-X------------------------|
G|--X-X--7/9--9--7--9--|    X3 then..   G|--X-X--7/9--9--7--9----------|
D|--X-X--7/9--9--7--9--|                D|--X-X--7/9--9--7--9--7-------|
A|--X-X--5/7--7--5--7--|                A|--X-X--5/7--7--5--7--7-------|
E|--X-X----------------|                E|--X-X----------------5-------|

Chorus
"Hold Me...              In your Arms...      "
E|-------------------------------------------------------|
B|-------------------------------------------------------|
G|-------------------------------------------------------|
D|-------------------------------------------------------|  X2
A|------2--5h7--7--5--7~~-2----------4h5-5--4-5~--7~-----|
E|------0-----------------0-----------------------5~-----|
[ Tab from: http://www.guitaretab.com/t/the-trews/163625.html ]
Chorus 2
E|-------------------------------------------------------|
B|-------------------------------------------------------|
G|-------------------------------------------------------|
D|---------7/9--9--7--9--------------6/7-7--6-7----------|
A|------2--5/7--7--5--7~~-2----------4/5-5--4-5~--7~-----|
E|------0-----------------0-----------------------5~-----|

Bridge
" I will not back down to anything or anyone... "
E|----------------------------------|
B|----------------------------------|
G|--4--5--6------------6--7--8------|    X3 then..
D|--5--6--7------------7--8--9------|
A|--5--6--7--5-7-5-7~--7--8--9------|
E|--3--4--5------------5--6--7------|

E|-------------------------------|
B|-------------------------------|
G|-------------------------------|
D|---/9--7-----------------------|
A|---------/10--9----/7--5-------|
E|------------------------/7--3--|

Played like this:
Intro
Verse
Intro
Chorus
Intro
Verse
Chorus
Chorus 2
Intro
Bridge
Chorus
Chorus 2
Intro

Hold Me In Your Arms- The Trews

Wake up to the sounds of the century they got a long way to go to gain
on me, itís all right
The years are coming down like the dirty leaves Iím gonna plant my
seed in history
Itís all right, I love my dream

Chorus
Hold Me in Your Arms
We Are One

You think youíve seen it all but youíll never see you gotta open up
your eyes and come with me, its alright
Everybody thinks theyíre the chosen one but my mother was a virgin Iím the seventh son
Itís all right, I love my dream

Chorus
Hold Me In Your Arms
We Are One

Bridge
I will not back down to anything or anyone
You cannot contend cause in my head Iím number one
Itís a mad mad world but baby what you gonna do
You just watch your back Iíll watch mine too

Chorus
Hold Me In Your Arms
We Are One

not bad fer a first tab, huh?     -joey g-
Related for Hold Me In Your Arms tab