Song name
# A B C D E F G H I J K L M N O P Q R S T U V W X Y Z

The Trews - Sing Your Heart Out tab

Hey Guys!
Shout out to Nick who requested this song...
This is one of the Trews newest song off they're acoustic album. Pretty easy
once you get the rhythm. I tried showing it but its too intense to notate but listen to the tune
and its easy to figure out. The whole song is basically three sections played over and over again.
The chords are pretty much right, so figure out the beat.
Umm, I dont think i have the lyrics right and i cant find them but...Think that's it. Enjoy!

*Note--> Open E Tuning and Capo Fifth Fret

Song:  Sing Your Heart Out
Artist:The Trews
Album: Friends and Total Strangers

Tuuning: Open E (e, b, g#, e, b E)  (capo fifth Fret)
Notes relative to capo
 ()--Strum
 p--Pull off
/--Slide


INTRO
e ]--0---0-0-0-0-0-0-0--0---0-0-0-0-0-0-0-0---------------|
B ]--0---0-0-0-0-0-0-0--0---0-0-0-0-0-0-0-0---------------|
G#]--8---8-8-8-8-8-8-8-/7---7-7-7-7-7-7-7-7--/------------|
E ]--0---0-0-0-0-0-0-0--0---0-0-0-0-0-0-0-0---------------|
B ]--9---9-9-9-9-9-9-9--9---9-9-9-9-9-9-9-9--/------------|
E ]-(0)----------------(0)--------------------------------|

e ]--0--0-0-0-0-0-0-0-0----------0---0-0-0-0-0----0-0-0-----|
B ]--0--0-0-0-0-0-0-0-0----------0---0-0-0-0-0----0-0-0-----|
G#]--5--5-5-5-5-5-5-5-7p5--------0---0-0-0-1p0----0-0-0-----|
E ]--0--0-0-0-0-0-0-0-0----------0---0-0-0-0-0----0-0-0-----|ect
B ]--5--5-5-5-5-5-5-5-5----------0---0-0-0-2p0----0-0-0-----|
E ]--0---------------------------0---0-0-0-0-0----0-0-0-----|


VERSE
       Strum
e ]-----(0)---0-0---0-0---(0)--0-0---0-0-|
B ]-----(0)---0-0---0-0---(0)--0-0---0-0-|
G#]-----(0)---1p0---1p0---(0)--1p0---1p0-|
E ]-----(0)---0-0---0-0---(0)--0-0---0-0-|
B ]---- (0)---2p0---2p0---(0)--2p0---2p0-|
E ]-----(0)---0-0---0-0---(0)--0-0---0-0-|


e ]-----(0)---0-0-(0)---0-0-0--0-0-0---0-0-0---0-0-0----|
B ]-----(0)---0-0-(0)---9-9-9-/7-7-7---0-0-0---0-0-0----|
G#]-----(1)---1p0-(0)---0-0-0-/0-0-0---5-5-5---0-1p0----|
E ]-----(0)---0-0-(0)---0-0-0--0-0-0---0-0-0---0-0-0----|
B ]---- (2)---2p0-(0)---9-9-9--7-7-7---5-5-5---0-2p0----|
E ]-----(0)---0---(0)---0-0-0--0-0-0---0-0-0---0-0-0----|

PRECHORUS
e ]-----(0)---(0)---(0)---(0)--0-0-------|
B ]-----(0)---(0)---(0)---(0)--0-0-------|
G#]-----(8)---(7)---(6)---(5)--1p0-------|
E ]-----(0)---(0)---(0)---(0)--0-0-------|
B ]---- (9)---(9)---(6)---(5)--2p0-------|
E ]-----(0)---(0)---(0)---(0)--0-0-------|

CHORUS - Same as VERSE

Order

Intro x2
Verse x2
Prechorus x 2
Chorus x 2
Verse x2
Chorus x 2
PreChorus --> let ring on the sixth fret chord
Prechorus x2--> harmonica solo
Verse x1
PreChorus x2
Chorus x4
Prechorus -->let ring Sixth...
Prechorus x 3---to fade

Lyrics:

Verse
Leave the ghost that's been haunting you back;
put everything in a paper bag;
better put him in a normal grave (???)

You'll be damned when your mother finds out;
you're not the girl that she once knew now;
You're going to find, you're going to find your own way

PreChorus 1
You deserve the best, you should expect nothing less
we could live in bliss, if you just say yes

On a night like this, life can change with a kiss;
if you don't second guess and you go with it

Chorus
And you sing your heart out, sing yourr heart out
Traveling Blues away
sing your heart out, sing your heart out
you got more to say

Verse
I got a car and some money to spend
we could run with the best of them
if you let me steal you away

from the clans of the small town views,
everyone's thinking they know you
but we know that there's just no way

Chorus (same as above)

Prechorus 2
You're my motorcycle woman
and i love you like no other
meet me out by the old highway..

Verse
Think of me as a healthy man,
nothing more nothing less than that
we could sing all your heart-ships away

Prechorus 1

Chorus (same as above) x 2

Prechorus 2


Good Luck!
Tabbed by dman_05
comment on any major mistakes and ill check them out!
Tap to rate this tab
# A B C D E F G H I J K L M N O P Q R S T U V W X Y Z