Song name
# A B C D E F G H I J K L M N O P Q R S T U V W X Y Z

The Twenty Twos - Touch And Go tab

Help us improve GuitareTab! Take a short survey!
I don't claim to know how to play at all, 
but I think this is pretty close. This is 
my first tab, so let me know what you think...

Standard Tuning
/=slide

Intro:
e|---------------------------|---------------------------|
B|-------12-------12----12---|-------10-------10----10/8-|
G|---------------------------|---------------------------|
D|---------------------------|---------------------------|
A|-10-10----10-10----10------|-10-10----10-10----10------|
E|---------------------------|---------------------------|

e|---------------------------------|
B|-----8-----8---8-----8-----8---8-|   Repeat Intro a bunch
G|---------------------------------|   of times up to chorus
D|---------------------------------|
A|-7-7---7-7---7---7-7---7-7---7---|
E|---------------------------------|

Chorus:
e|-----------------------------------------|
B|-----------------------------------------|
G|-----------------------------------------|
D|-------12----------12----7---------------|
A|-10----12----10----12----7----7----10----|
E|-10----10----10----10----5----7----10----|
E|--8-----------8---------------5-----8----|

Replay Intro until next chorus...

Chorus:
e|--------------------------------------|
B|--------------------------------------|
G|--------------------------------------|
D|-------12----------12----7------------|
A|-10----12----10----12----7----7----10-|
E|-10----10----10----10----5----7----10-|
E|--8-----------8---------------5-----8-|

Repeat until end:       x4
e|-----------------------|              |----|
B|-----------------------|              |----|
G|-----------------------| End on chord |----|
D|-12----7---------------|              |-12-|
A|-12----7----7----10----|              |-12-|
E|-10----5----7----10----|              |-10-|
E|------------5-----8----|              |----|
Related for Touch And Go tab