Guitaretab - guitar tabs
Song name
# A B C D E F G H I J K L M N O P Q R S T U V W X Y Z

The Vasco Era - Shades Of Grey tab

-------------------------------------------------------------------------------
			 Shades of Grey (Solo)  The Vasco Era
-------------------------------------------------------------------------------
Tabbed by: Tom Trumble
Email: tom@trumble.net.au

Tuning: Standard

| \  slide down
| b  bend
| () ghost note

2:33

e|--------------------------------------------------------------15---12~-----|
B|---------17-----15------------12b---10~----------17-----15-----------------|
G|--------------------14-14--------------------------------------------------|
D|---------------------------------------------------------------------------|
A|---------------------------------------------------------------------------|
E|---------------------------------------------------------------------------|
[ Tab from: http://www.guitaretab.com/t/the-vasco-era/169639.html ]
e|---------------------------------------------------------------------------|
B|---------17-----15------------12b---10~---10~----(10)-18-18---15b\-13~-----|
G|--------------------14-14--------------------------------------------------|
D|---------------------------------------------------------------------------|
A|---------------------------------------------------------------------------|
E|---------------------------------------------------------------------------|

e|---------------------------------------------------------------------------|
B|---13--13--1313b--13----18-18---15b\-13~---13--13--13--13b--13------------|
G|---------------------------------------------------------------------------|
D|---------------------------------------------------------------------------|
A|---------------------------------------------------------------------------|
E|---------------------------------------------------------------------------|

e|---------------------------------------------------------------------------|
B|---18-18---15b\-13~---13--13--13--13b--13-10------------------------------|
G|---------------------------------------------------------------------------|
D|---------------------------------------------------------------------------|
A|---------------------------------------------------------------------------|
E|---------------------------------------------------------------------------|

| \  slide down
| b  bend
| () ghost note
===============================================================================

Related for Shades Of Grey tab