Guitaretab - guitar tabs
Song name
# A B C D E F G H I J K L M N O P Q R S T U V W X Y Z

The Veronicas - Popular tab

Hope this is right... :) I love veronicas!!! im goin to their concert on 28th Feb XD

Lyrics are at the bottom



Intro:
e|------------|----------|-------------------------|
B|------------|----------|-------------------------|
G|------------|----------|-------------------------|
D|------------|----------|-------------------------| X2
A|-5-5-5-5----|---0-0----|-------------------------|
D|------------|---5-3----|-5-5-3-3-0-0-0-0---------|

Verse 1:
e|-------------------------------------------------|
B|-------------------------------------------------|
G|-------------------------------------------------|
D|-0000----------7777---------55555555-------------|
A|-0000----------7777---------55555555-------------|
D|-0000----------7777---------55555555-------------|

e|-------------------------------------------------|
B|-------------------------------------------------|
G|-------------------------------------------------|
D|-0000--------7777---------5555--------6666-------|
A|-0000--------7777---------5555--------6666-------|
D|-0000--------7777---------5555--------6666-------|

e|-------------------------------------------------|
B|-------------------------------------------------|
G|-------------------------------------------------|
D|-0000----------7777---------55555555-------------|
A|-0000----------7777---------55555555-------------|
D|-0000----------7777---------55555555-------------|

e|-------------------------------------------------|
B|-------------------------------------------------|
G|-------------------------------------------------|
D|-0000----------7777---------55555555-------------|
A|-0000----------7777---------55555555-------------|
D|-0000----------7777---------55555555-------------|

Chorus:
e|-------------------------------------------------|
B|-------------------------------------------------|
G|-------------------------------------------------|
D|-0000--------6666--------5555--------8888-------|   X5
A|-0000--------6666---------5555--------8888-------|
D|-0000--------6666---------5555--------8888-------|

Verse 2:
e|-------------------------------------------------|
B|-------------------------------------------------|
G|-------------------------------------------------|
D|-0000--------6666--------5555--------8888-------|   X4
A|-0000--------6666---------5555--------8888-------|
D|-0000--------6666---------5555--------8888-------|

Chorus:
e|-------------------------------------------------|
B|-------------------------------------------------|
G|-------------------------------------------------|
D|-0000--------6666--------5555--------8888-------|   X4
A|-0000--------6666---------5555--------8888-------|
D|-0000--------6666---------5555--------8888-------|


Bridge:
e|-----------------------------00000000------------|
B|-----------------------------11111111------------|
G|-----------------------------22222222------------|
D|---------55555---------------00000000------------|
A|---------55555---------------00000000------------|
D|---------55555---------------00000000------------|

e|-------------------------------------------------|
B|-------------------------------------------------|
G|-------------------------------------------------|
D|---------00000000------------22222222------------|
A|---------00000000------------33333333------------|
D|---------00000000------------22222222------------|
[ Tab from: http://www.guitaretab.com/t/the-veronicas/167300.html ]
e|-------------------------------------------------|
B|-------------------------------------------------|
G|-------------------------------------------------|
D|------55------7----------------------------------|
A|------55------7----------------------------------|
D|------55------7----------------------------------|

Interlude:
e|-------------------------------------------------|
B|-------------------------------------------------|
G|-------------------------------------------------|
D|-0000--------6666--------5555--------8888-------|   X4
A|-0000--------6666---------5555--------8888-------|
D|-0000--------6666---------5555--------8888-------|

Chorus:
e|-------------------------------------------------|
B|-------------------------------------------------|
G|-------------------------------------------------|
D|-0000--------6666--------5555--------8888-------|   X4
A|-0000--------6666---------5555--------8888-------|
D|-0000--------6666---------5555--------8888-------|

e|-------------------------------------------------|
B|-------------------------------------------------|
G|-------------------------------------------------|
D|-----55555555------------88888888----------------|
A|-----55555555------------88888888----------------|
D|-----55555555------------88888888----------------|
                      X3
e|-------------------------------------------------|
B|-------------------------------------------------|
G|-------------------------------------------------|
D|-----00000000-------------22222222---------------|
A|-----00000000-------------33333333---------------|
D|-----00000000-------------22222222---------------|

e|-------------------------------------------------|
B|-------------------------------------------------|
G|-------------------------------------------------|
D|-----55555555------------88888888--------0>------|
A|-----55555555------------88888888--------0>------|
D|-----55555555------------88888888--------0>------|



Lyrics:
Verse 1
I hate to say it, but they play this damn song in every club
But it's me, so I'll show love
But it's me, so show me love
And when I walk into the room, people stop and stare
It's like nobody else is there
You know it's me, not you
Who said anything about you?

Chorus
Boys and girls pretend to know me, they try so hard
And I get what I want, my name is my credit card
Don't try to hate me because I am so popular
Pop-pop-popular
Pop-pop-popular

Verse 1
Most guys I dated got intimidated, so now I date up
If you know what I mean, so they shut up
If you know what I mean, so just shut up
'Cause I don't wanna give half away on the day we don't make out
If you know what I mean, when we wake up
If you know what I mean, when we break up

Chorus
Boys and girls pretend to know me, they try so hard
And I get what I want, my name is my credit card
Don't try to hate me because I am so popular
Pop-pop-popular

Bridge
You always wanna be 'round me, so you know what it's like
When the world is at your feet, and you're V.I.P tonight
You either got it or you don't, and I'm sorry you won't
Get there by using me, just go and do your own thing

Chorus
Boys and girls pretend to know me, they try so hard
And I get what I want, my name is my credit card
Don't try to hate me because I am so popular
Pop-pop-popular

Boys and girls pretend to know me, they try so hard
And I get what I want, my name is my credit card
Don't try to hate me because I am so popular
Pop-pop-popular
Pop-pop-popular
Pop-pop-popular
Pop-pop-popular
Pop-pop-popular
Related for Popular tab