Song name
# A B C D E F G H I J K L M N O P Q R S T U V W X Y Z

The Veronicas - Everything Im Not tab

The Veronicas
Everything I'm Not
The Secret Life Of
2005
Submitted by: paramore_fans@yahoo.com

Tuning: Drop D

Key: Bb

Chords used: For Drop D
BbM7 - x132xx
Gm -   5553xx
F -    3335xx
Dm7 -  0535xx
Gm7 -  55876x
EbM7 - 11133x
Bb -   x133xx
Dm -   000xxx
Eb -   111xxx
Cm -   x355xx


Chords used: For Standard EADGBe
BbM7 - x13231
Gm -   355333
F -    133211
Dm7 -  xx0211
Gm7 -  355363
EbM7 - x687xx
Bb -   x13331
Dm -   xx0231
Eb -   x688xx
Cm -   x35543


Intro: Palm muted
        BbM7               Gm                F            Dm7         F
e|---------------|-------------------|---------------|-----------|---------|
B|---------------|-------------------|---------------|-----------|---------|
G|-2-2-2-2-2-2-2-|-3-3-3-3-3-3-3-3-3-|-5-5-5-5-5-5-5-|-5-5-5-5-5-|-5-5-5-5-|
D|-3-3-3-3-3-3-3-|-5-5-5-5-5-5-5-5-5-|-3-3-3-3-3-3-3-|-3-3-3-3-3-|-3-3-3-3-|
A|-1-1-1-1-1-1-1-|-5-5-5-5-5-5-5-5-5-|-3-3-3-3-3-3-3-|-5-5-5-5-5-|-3-3-3-3-|
D|---------------|-5-5-5-5-5-5-5-5-5-|-3-3-3-3-3-3-3-|-0-0-0-0-0-|-3-3-3-3-|


Verse 1:
BbM7    Gm               F
  Oh no Don't go changing That's
         Dm7     F
what you told me from the start
BbM7               Gm
  Thought you were something different
F                Dm7      F
  That's when it all just fell apart
BbM7   Gm               F    Dm7
  Like you're so perfect And I can't
F         BbM7  Gm
measure up Well I'm not
       F     Dm7        F
perfect Just all messed up


Guitar 2: in "like you're so perfect"
e|-10----11----10----8----|
B|----11----11----11------|
G|---------------------10-|
D|------------------------| x4
A|------------------------|
D|------------------------|


Chorus:
       Gm7             EbM7
I was losing myself to somebody else
    Bb       F        Gm7
But now I see I don't wanna pretend
   EbM7               Bb        F
So this is the end of you and me
          Gm7           EbM7
Cause the girl that you want She was
Bb          F
tearing us apart Cause she's
Cm         Eb
everything Everything I'm not


Guitar 2: While doing Chorus
       Gm7              EbM7                 Bb                F
e|-6-6-6-5-5-5-|---------------------|-----------------|-----------------|
B|-------------|-6-6-6---------------|-----------------|-----------------|
G|-------------|-------7-7-7-7-7-7-7-|-----------------|-----------------|
D|-------------|---------------------|-8-8-8-8-8-8-8-8-|-7-7-7-7-7-7-7-7-|
A|-------------|---------------------|-----------------|-----------------|
D|-------------|---------------------|-----------------|-----------------|

       Gm7              EbM7               Bb                F
e|-6-6-6-5-5-5-|---------------------|-------------|---------------------|
B|-------------|-6-6-6---------------|-------------|-6-6-6-6-6-6-6-6-6-6-|
G|-------------|-------7-7-7-7-7-7-7-|-------------|---------------------|
D|-------------|---------------------|-8-8-8-8-8-8-|---------------------|
A|-------------|---------------------|-------------|---------------------|
D|-------------|---------------------|-------------|---------------------|

       Gm7              EbM7                 Bb                F
e|-6-6-6-5-5-5-|---------------------|-----------------|-----------------|
B|-------------|-6-6-6---------------|-----------------|-----------------|
G|-------------|-------7-7-7-7-7-7-7-|-----------------|-----------------|
D|-------------|---------------------|-8-8-8-8-8-8-8-8-|-7-7-7-7-7-7-7-7-|
A|-------------|---------------------|-----------------|-----------------|
D|-------------|---------------------|-----------------|-----------------|


      Cm         Eb
e|-------------|---|
B|-------------|---|
G|-5-5-5-5-5-5-|---|
D|-5-5-5-5-5-5-|-1-|
A|-3-3-3-3-3-3-|-1-|
D|-------------|-1-|


(Repeat Intro)


Verse 2:
BbM7              Gm
  It's not like I need somebody
F
  Telling me where
Dm7      F
I should go at night
BbM7                 Gm
  Don't worry you'll find somebody
F                 Dm7
  Someone to tell how
   F
to live their life
BbM7    Gm
  Cause you're so perfect
F     Dm7    F
  And no one measures up
BbM7   Gm
  Yeah all by yourself
F        Dm7        F
  You're all messed up


(Repeat Chorus)


Bridge:
Dm
  Now wait a minute
Eb
  Because of you
Gm             Eb
  I never knew all
    Bb
the things that I had
Dm
  Hey don't u get it
Eb
  I'm not going
Eb
anywhere with you tonight
      F
Cause this is my life


(Repeat Intro)
(Repeat Chorus)


Outro:
Gm7 EbM7    Bb       F        Gm7
        But now I see I don't wanna pretend
   EbM7               Bb        F
So this is the end of you and me
          Gm7           EbM7
Cause the girl that you want She was
Bb          F
tearing us apart Cause she's
Cm         Eb
everything Everything I'm not
Tap to rate this tab
 
# A B C D E F G H I J K L M N O P Q R S T U V W X Y Z