Guitaretab - guitar tabs
Song name
# A B C D E F G H I J K L M N O P Q R S T U V W X Y Z

The View - Up The Junction tab

e |-----------------------------------------------------|
b |--------------------------9--------9-----------------|
g |-----------9----11---9--------11-------11----9-------|
d |--9---11-----------------------------------------11--|
a |-----------------------------------------------------|
E |-----------------------------------------------------|

[ Tab from: ]
e |-------------------------------------------------------------|
b |-------------------------------------------------------------|
g |-----------9----11---9(ring)---------------------------------|
d |--9---11-----------------------11---9---11---9---------------|
a |-------------------------------------------------11---9-----7|
E |-------------------------------------------------------------|

this is how kyle plays it live. he adds hammer ons which you can figure out, chords are 
on others. enjoy!

any changes email me at
Related for Up The Junction tab